» » »

Twang - Either Way Tabs

Artists:  A B C D E F G H I J K L M N O P Q R S T U V W X Y Z # 

Either Way Tabs

(ver. 1) Click to play this song!
Twang
 Rating:
4/5 (12 votes)

 Either Way lessons Tabs too difficult? Try these video lessons and learn fast
 
                A few requests for this great song, so i thought i would make my contribution to the 
and do my first tab ,seen i have used it for years. The + + are harmonics and the rest is 
straight forward, just listen to the song for timing and how many times to play each part...
please rate it and let me know how you get on...
pretty sure this is 100%
CHEERS... GOOD LUCK................. NB the count for guitar 1 chorus is
1 2 3 _ 1 2 3 4

....................

the TWANG  eitherway
.....................

Intro, verse GUITAR 1                          + +
-------------------------------------------------------|
----------------------------------------------12-------|
------------------------------------------------12-----|
-----------------12-12-------------------12-12---------|
----12---12-9-10------------12---12-9-10---------------|
-10---10-----------------10---10-----------------------|


Intro, chorus guitar 1
-------------------------|
-----3--3--3----3--3--3--|
---2--2--2----0--0--0----|
-0----------0------------|
-------------------------|
-------------------------|


Bridge guitar 1
---------------------------|
-----3--3---3---3---3--3---|
---0---0-------0---0-------|
-2----2---2--4---4---4-----|
---------------------------|
---------------------------|


Intro, verse  chorus, outro guitar 2
 D             G
-2--------------------|
-3-------------3------|
-2--------------------|
---------------2------|
---------------3------|

Bridge guitar 2
--------------------|
-3-----------3------|
-------------2------|
-2-----------4------|
-2------------------|
--------------------|

Outro Guitar 1
-------------------------------5--5--5--5---|
--------------------------------------------|
----------------6-7-9-9-7-6-7-7--7--7--7----|
------------7-9-----------------0--0--0-----|
----7-9-10----------------------------------|
-10-----------------------------------------|
            
Submit corrections


        Either Way lessons Hard to play? Try these video lessons and learn fast Either Way lessons
        
↑ Back to top | Tablatures and chords for acoustic guitar and electric guitar, ukulele, drums are parodies/interpretations of the original songs. You may use it for private study, scholarship, research or language learning purposes only