Home » T » Turbonegro »

Turbonegro - All My Friends Are Dead Tabs

Artists:  A B C D E F G H I J K L M N O P Q R S T U V W X Y Z # 

All My Friends Are Dead Tabs

(ver. 2) Click to play this song!
Turbonegro




Tuning:Regular

e|-15b/--15b/---15b/---------------------------------------------------------|
B|-------------------15b\--p12--15--12------12---------------------12--------|
G|------------------------------------14-------14--12--14-12------12--14-----|
D|------------------------------------------------------------14-------------|
A|---------------------------------------------------------------------------|
E|---------------------------------------------------------------------------|

e|-15b/--15--12---15p12-15p12----12--15p12-15p12----12--15-14-12-14-12-------|
B|---------------------------15-----------------15---------------------15----|
G|---------------------------------------------------------------------------|
D|---------------------------------------------------------------------------|
A|---------------------------------------------------------------------------|
E|---------------------------------------------------------------------------|

e|-12------------------------15----------------------------------------------|
B|----15--12-15-12------15b/----15b/--------------------12-------------------|
G|------------------14-------------14b\-p12-14p12------12--------------------|
D|------------------------------------------------14-------------------------|
A|---------------------------------------------------------------------------|
E|---------------------------------------------------------------------------|

e|--0p2-2-0p2-2-0p2-2-0p2-2-0p2-2-0---0p5-5-0-5-5-0-5-5-0--------------------|
B|--------------------------------------5-5-0-5-5-0-5-5----10--10b/--b\8-----|
G|---------------------------------------------------------------------------|
D|---------------------------------------------------------------------------|
A|---------------------------------------------------------------------------|
E|---------------------------------------------------------------------------|

e|------10-------------------------------------------------------------------|
B|--10b/----10b\--p8---8----------------------------------------12-14b/------|
G|-----------------9---9--7-------------------------------12----12-14b/------|
D|--------------------------9-8-7-5---------12--14p12-----12-14--------------|
A|--------------------------------------/14------------14--------------------|
E|---------------------------------------------------------------------------|

e|-b\12--------------12------------------------------------------------------|
B|-b\12-----12-------12---15p12----15b/--15b/--------------------------------|
G|----------12--14b/------------14-------------------------------------------|
D|-------14------------------------------------------------------------------|
A|---------------------------------------------------------------------------|
E|---------------------------------------------------------------------------|

| b/ bend up
| b\ bend down
| /  slide up
| \  slide down
| h  hammer-on
| p  pull-off
| ~  vibrato
| +  harmonic
| x  Mute note
==========================================================================================
            
Submit corrections

↑ Back to top | Tablatures and chords for acoustic guitar and electric guitar, ukulele, drums are parodies/interpretations of the original songs. You may use it for private study, scholarship, research or language learning purposes only