Home » T » Turbonegro »

Turbonegro - Give Me Some Tabs

Artists:  A B C D E F G H I J K L M N O P Q R S T U V W X Y Z # 

Give Me Some Tabs

(ver. 1) Click to play this song!
Turbonegro
At first there is a pick slide and then these chords follow:


|---------------------|
|---------------------|
|-7---9---------------|
|-7-7-9-9--9-9-9-9----|
|-5-7-7-9--9-9-9-9----|
|---5---7--7-7-7-7----|





This is a part of the intro solo.
( as close as I can get. The high notes I can't 
  find out without an amp at my side :-(  )


|--------------------------------|
|--------------------------------|
|-----------------9b10-7-9b11----|
|-----------9p7-9----------------|
|-5S7-9h10-----------------------|
|--------------------------------|






 4/4
  Gtr I
|----------------------|
|----------------------|
|-5-5-5-5-4-4-4-4-4----|
|-5-5-5-5-4-4-4-4-4----|
|-3-3-3-3-2-2-2-2-2----|
|----------------------|



I got a lot of respect for the rich and the poor...


|-------------------------------------------|
|-------------------------------------------|
|-7-7-7-7-9-9-9-9---------------------------|
|-7-7-7-7-9-9-9-9-9-9-9-9---9-9--5-5-7-7----|
|-5-5-5-5-7-7-7-7-9-9-9-9---9-9--5-5-7-7----|
|-----------------7-7-7-7---7-7--3-3-5-5----|

You want some fun so...     ^ this part is only played after the fourth time
                             ( come on an gimme some...)
            
Submit corrections

↑ Back to top | Tablatures and chords for acoustic guitar and electric guitar, ukulele, drums are parodies/interpretations of the original songs. You may use it for private study, scholarship, research or language learning purposes only