» » »

Trust Company - Slipping Away Tabs

Artists:  A B C D E F G H I J K L M N O P Q R S T U V W X Y Z # 

Slipping Away Tabs

(ver. 3) Click to play this song!
Trust Company
 Rating:
2.7/5 (26 votes)

 Slipping Away lessons Tabs too difficult? Try these video lessons and learn fast
 
                Tuning: Drop C#


Intro & 1st Part of Verse (slight distortion)
|-----------------|    |-----------------|
|-----------------|    |-----------------|
|-----------------|    |-----------------|
|---5*----7*------| x3 |------5*---------|
|------5*---------|    |---3*----5*------|
|------------5*---|    |------------5*---|

Chorus Lead (heavy distortion)
|-----------------------------------------------|
|-----------------------------------------------|
|---10-10-10-10-10-10-10-10-10-10-10-10-10-10---|
|----x--x--x--x--x--x--x--x--x--x--x--x--x--x---|
|----8--8--8--8--8--8--8--8--8--8--8--8--8--8---|
|-----------------------------------------------|

Chorus Lead (continued)
|---------------------------------------|
|---------------------------------------|
|---------------------------------------|
|---10-9h10-9--3~-3-3:-x-3~-3-3:-x-3~---|
|--------------3~-3-3:-x-3~-3-3:-x-3~---|
|--------------3~-3-3:-x-3~-3-3:-x-3~---|

Chorus lead(continued)
|------------------------------|
|------------------------------|
|---5~-5-5-5/9~-10-10-10/12~---|
|---x--x-x-x-x---x--x--x--x----|
|---3~-3-3-3/7~--8--8--8/10~---|
|------------------------------|

Chorus rhythm (heavy distortion)
|-----------------------------------------------|
|-----------------------------------------------|
|---10-10-10-10-10-10-10-10-10-10-10-10-10-10---|
|----8--8--8--8--8--8--8--8-10-10-10-10-10-10---|
|----8--8--8--8--8--8--8--8--0--0--0--0--0--0---|
|----8--8--8--8--8--8--8--8--0--0--0--0--0--0---|

Chorus rhythm (continued)
|---------------------------------------------|
|---------------------------------------------|
|---------------------------------------------|
|---9h10p9-----------3~-3-3:-x-3~-3-3:-x-3~---|
|---9h10p9-----------3~-3-3:-x-3~-3-3:-x-3~---|
|---9h10p9-----------3~-3-3:-x-3~-3-3:-x-3~---|

Chorus rhythm (continued)
|------------------------------|
|------------------------------|
|---5~-5-5-5/9~-10-10-10/12~---|
|---x--x-x-x-x---x--x--x--x----|
|---3~-3-3-3/7~--8--8--8/10~---|
|---3--3-3-3/7---8--8--8-10----|

Play 1st Part of Verse x2

2nd Part of Verse x2
|---------------------------------------|
|---------------------------------------|
|------9*-----------------9*-------9*---|
|---9*----9*----9*-----9*----9*---------|
|------------9*-----------------9*------|
|---------------------------------------|            
Submit corrections


        Slipping Away lessons Hard to play? Try these video lessons and learn fast Slipping Away lessons
        
↑ Back to top | Tablatures and chords for acoustic guitar and electric guitar, ukulele, drums are parodies/interpretations of the original songs. You may use it for private study, scholarship, research or language learning purposes only