» » »

Trivium - Crusade Tabs

Artists:  A B C D E F G H I J K L M N O P Q R S T U V W X Y Z # 

Crusade Tabs

(ver. 1) Click to play this song!
Trivium
 Rating:
4/5 (4 votes)

 Crusade lessons Tabs too difficult? Try these video lessons and learn fast
 
                
Cmon people we gotta get this song tabbed, and fast. any
help would be much appreiciated...this is work in progress


GUITAR TAB:
==========

        Intro/part 1

   (0:00)  Guitar 1
E]--------------------------------------------------------------|
B]--------------------------------------------------------------|
G]--------------------------------------------------------------|
D]--------------------------------------------------------------|
A]--7--0--0--7--0--0--7--0--0--0--5--0--8--0--7--0--5--0--7--0--|
E]--------------------------------------------------------------|

E]----------------------------------------------------------------|
B]----------------------------------------------------------------|
G]----------------------------------------------------------------|
D]----------------------------------------------------------------|
A]--8--0--4--0--5--0--7--0--7--0--0--7--0--0--7-0--0--0--5--0--8--|
E]----------------------------------------------------------------|

           Guitar 1	
E]-----------------------------------------------|	 
B]-----------------------------------------------|
G]-----------------------------------------------|
D]-----------------------------------------------|
A]--0--7--0--12--0--10--0--8--0--10--8-----------|
E]-----------------------------------------------|	 

   (0:00)  Guitar 2
E]----------------------------------------------------------------------|
B]----------------------------------------------------------------------|
G]----------------------------------------------------------------------|
D]--2~------------------------------------------------------------------|
A]--2~------------------------------------------------------------------|
E]--0~------------------------------------------------------------------|
     HOLD NOTE

           Guitar 1&2
E]------------------------------------------|
B]------------------------------------------|
G]------------------------------------------|
D]---6~-------------------------------------|
A]---6~-------------------------------------|
E]---4~-------------------------------------|	

           Guitar 1
E]--------------------------------------------------------------|
B]--------------------------------------------------------------|
G]--------------------------------------------------------------|
D]--------------------------------------------------------------|
A]--7--0--0--7--0--0--7--0--0--0--5--0--8--0--7--0--5--0--7--0--|
E]--------------------------------------------------------------|

E]----------------------------------------------------------------|
B]----------------------------------------------------------------|
G]----------------------------------------------------------------|
D]----------------------------------------------------------------|
A]--8--0--4--0--5--0--7--0--7--0--0--7--0--0--7-0--0--0--5--0--8--|
E]----------------------------------------------------------------|

 
	  Guitar 1	
E]--------------------------------------------------|	 
B]--------------------------------------------------|
G]--------------------------------------------------|
D]--------------------------------------------------|
A]--0--7--0--12--0--10--0--8--0--10--8--0--7--0-----|
E]--------------------------------------------------|

          Guitar 2
E]----------------------------------------------------------------------|
B]----------------------------------------------------------------------|
G]----------------------------------------------------------------------|
D]--2~------------------------------------------------------------------|
A]--2~------------------------------------------------------------------|
E]--0~------------------------------------------------------------------|
    HOLD NOTE
          Guitar1&2
E]---------------------------------------------------|
B]---------------------------------------------------|
G]---------------------------------------------------|
D]--6--7--8--9--10-----------------------------------|
A]--6--7--8--9--10-----------------------------------|
E]--4--5--6--7---8-----------------------------------|

	  Guitar 1
E]---------------------------------------------------------------|
B]---------------------------------------------------------------|
G]---------------------------------------------------------------|
D]--10--0--0--10--0--0--10--0--9--0--0--9--0--0--9--0--6--0--7---|
A]---------------------------------------------------------------|
E]---------------------------------------------------------------|

E]------------------------------------------------------------------|
B]------------------------------------------------------------------|
G]------------------------------------------------------------------|
D]------------------------------------------------------------------|
A]--0--9--0--7--0--0--7--0--0--7--0--7--0--6--0--0--6--0--0--6--0---|
E]------------------------------------------------------------------|

E]------------------|
B]------------------|
G]------------------|
D]------------------|
A]--4--0--6--0--7---|
E]------------------|

          Guitar 1&2
E]-------------------------------------------------------------------|
B]-------------------------------------------------------------------|
G]-------------------------------------------------------------------|
D]--7--7-7--7--7--7-7---9--9-9--9--9--9-9---10--10-10--10--10--10-10-|
A]--7--7-7--7--7--7-7---7--7-7--7--7--7-7---7---7--7---7---7---7--7--|
E]-------------------------------------------------------------------|

E]-------------------|
B]-------------------|
G]-------------------|
D]--9--9-9--6--6--7--|
A]--7--7-7--7--7--7--|
E]-------------------|

          Guitar 1
E]--------------8-----7---------------------8-----7----------|
B]-----------------------------------------------------------|
G]-----------------------------------------------------------|
D]--6/7-7-7-7-7---7-7---7-7-7-7-6/7-7-7-7-7---7-7---7-7-7-7--|
A]-----------------------------------------------------------|
E]-----------------------------------------------------------|

E]-------------------15------13-------------------------------15-------13--|
B]-------------------------------------------------------------------------|
G]-------------------------------------------------------------------------|
D]-10/12-12-12-12-12---12-12----12-12-12-12-10/12-12-12-12-12----12-12-----|
A]-------------------------------------------------------------------------|
E]-------------------------------------------------------------------------|

E]-------------------------------12-------10--------------|
B]--------------------------------------------------------|
G]--------------------------------------------------------|
D]--12-12-12-12-9/10-10-10-10-10----10-10----10-10-10-10--|
A]--------------------------------------------------------|
E]--------------------------------------------------------|
A
E]------------10-----8----------8-----7-----------5-----3---|
B]----------------------------------------------------------|
G]----------------------------------------------------------|
D]7/9-9-9-9-9----9-9----6/7-7-7---7-7---4/6-6-6-----6-6-----|
A]----------------------------------------------------------|
E]----------------------------------------------------------|
            
Submit corrections


        Crusade lessons Hard to play? Try these video lessons and learn fast Crusade lessons
        
↑ Back to top | Tablatures and chords for acoustic guitar and electric guitar, ukulele, drums are parodies/interpretations of the original songs. You may use it for private study, scholarship, research or language learning purposes only