» » »

Trivium - Crusade Tabs

Artists:  A B C D E F G H I J K L M N O P Q R S T U V W X Y Z # 

Crusade Tabs

(ver. 3) Click to play this song!
Trivium
 Rating:
4/5 (4 votes)

 Crusade lessons Tabs too difficult? Try these video lessons and learn fast
 
                "(2)
-------------------------------------------------------------------------------
-------------------------------------------------------------------------------

                                 Trivium
                               The Crusade
                               The Crusade

Guitar 1 - Standard Tuning
Guitar 2 - Standard Tuning
Guitar 3 - Standard Tuning

Hey I can't really take credit for this tab because I only figured out two
parts and then I took the parts from the other tabs submitted that sounded
right to me so thanks other dudes that submitted there tabs in.
I corrected some mistakes the others made.

intro

Guitar one
E||-----------------------------------------|
B||-----------------------------------------|
G||*----------------------------------------|
D||*----------------------------------------|
A||-----------------------------------------|
E||---12-0-0-12-0-0-12-0-0-0-10-0-13-0-12-0-|

Guitar two
E||-----------------------------------------|  Let Ring
B||-----------------------------------------|
G||-----------------------------------------|
D||---2-------------------------------------|
A||---2-------------------------------------|
E||---0-------------------------------------|

Guitar one
---------------------------------------|------------------------------|
---------------------------------------|------------------------------|
---------------------------------------|------------------------------|
---------------------------------------|------------------------------|
---------------------------------------|------------------------------|
--8-0-10-0-12-0-7-0-8-0-10-0-12-0-0-12-|--0-0-12-0-0-0-10-0-13-0-12-0-|

---------------------------------------|
---------------------------------------|
--------------------------------------*|
--------------------------------------*|
---------------------------------------| Whole intro 2x
--17-0-16-0-13-0-16-0-12-0-13-0-16-----|

Both Guitars
|----------------------------|
|----------------------------|
|----------------------------|
|--3----6----7----9----10----|
|----------------------------|
|--1----4----5----7-----8----|

Guitar one
|--------------------------------------------------------|
|--------------------------------------------------------| \
|*-------------------------------------------------------|  \
|*-------------------------------------------------------|   \ 
|--------------------------------------------------------|    \ 
|---20-0-0-20-0-0-20-0-19-0-0-19-0-0-19-0-16-0-17-0-19-0-|     |
                                                               |  2x
--------------------------------------------------------||     |
--------------------------------------------------------||    /
-------------------------------------------------------*||   /
-------------------------------------------------------*||  /
--------------------------------------------------------|| /
--17-0-0-17-0-0-17-0-16-0-0-16-0-0-16-0-13-0-16-0-17-0--|| 

Both Guitars (palm muted)
|---------------------------------------------------|
|---------------------------------------------------|
|*--------------------------------------------------|
|*--------------------------------------------------|
|---3--3--3--3--3--3--3--3--6--6--6--6--6--6--6--6--|
|---1--1--1--1--1--1--1--1--4--4--4--4--4--4--4--4--|

--------------------------------------|
--------------------------------------|
--------------------------------------|
--------------------------------------|
--------------------------------------|
--8--7--5--8--7--5--7--5--4--7--5--4--|

Both Guitars (palm muted)
|---------------------------------------------------|
|---------------------------------------------------|
|---------------------------------------------------|
|---------------------------------------------------|
|---3--3--3--3--3--3--3--3--6--6--6--6--6--6--6--6--|
|---1--1--1--1--1--1--1--1--4--4--4--4--4--4--4--4--|

Guitar one
|---------------------------------------------------|
|---------------------------------------------------|
|---16-16-16-16-16-16-------------------------------|
|---------------------------------------------------|
|---------------------------------------------------|

Guitar two
|------------19-19-19-------------------------------|
|---17-17-17----------------------------------------|
|---------------------------------------------------|
|---------------------------------------------------|
|---------------------------------------------------|
|---------------------------------------------------|

Guitar three
|---------------------------------------------------|
|---------------------------------------------------|That whole riff
|---------------------------------------------------|is played 2 times
|---2-2-2-2-2-2-------------------------------------|
|---2-2-2-2-2-2-------------------------------------|
|---0-0-0-0-0-0-------------------------------------|

Everything tabbed so far repeats itself one more time before going into 
this riff

Guitar 1
---------------------------------------|--------------------------------------|
---------------------------------------|--------------------------------------|
*--------------------------------------|--------------------------------------|
*--7-----7--7-----7-----7-----7--7-----|--9-----9--9-----9-----9-----9--9-----|
---7-----7--7-----7-----7-----7--7-----|--7-----7--7-----7-----7-----7--7-----|
---------------------------------------|--------------------------------------|

---------------------------------------------|
---------------------------------------------|
---------------------------------------------|
--10-----10--10-----10-----10-----10--10-----|
---8------8---8------8------8------8---8-----|
---------------------------------------------|

this riff is played 6 times. On the second time the bass comes in playing 
this next riff and it plays it three times before going into a more simple
bass riff

Bass
G|---------------------------------------------------------------------------
D|---------------------------------------------------------------------------
A|---------------------------------------------------------------------------
E|-8-5-7-8-7-5-8-5-7-8-7-5--7-4-5-7-5-4-7-4-5-7-5-4--5-2-4-5-4-2-5-2-4-5-4-2-

G|-------------------------|
D|-------------------------|
A|-------------------------|
E|-4-1-2-4-2-1-4-1-2-4-2-1-|

After the sixth time of the guitar riff it goes into this

|-------------------------------------------|
|-------------------------------------------|
|-------------------------------------------|
|-------------------------------------------|
|-8-7-5-------7-7-7-7-7-7-7-7-7-8-7-5-------|
|-------8-7-5-5-5-5-5-5-5-5-5-5-------8-7-5-|

I don't have this riff completely right but I have part of it figured out

|-------------------------------5-5-5-7-7-7---8-8-8-7-7-7-----|
|-----------------8-8-8---------------------------------------|
|-----------------------5-5-5---------------------------------|
|---7-7-7-9-9-9-----------------------------------------------|
|-7-------------5-------------9------------10-----------------|
|-5-------------3-------------7-------------8-----------------|

          Guitar 1
--------------8-----7---------------------8-----7----------|
-----------------------------------------------------------|
-----------------------------------------------------------|
--6/7-7-7-7-7---7-7---7-7-7-7-6/7-7-7-7-7---7-7---7-7-7-7--|
-----------------------------------------------------------|
-----------------------------------------------------------|

-------------------15------13-------------------------------15-------13--|
-------------------------------------------------------------------------|
-------------------------------------------------------------------------|
-10/12-12-12-12-12---12-12----12-12-12-12-10/12-12-12-12-12----12-12-----|
-------------------------------------------------------------------------|
-------------------------------------------------------------------------|

-------------------------------12-------10--------------|
--------------------------------------------------------|
--------------------------------------------------------|
--12-12-12-12-9/10-10-10-10-10----10-10----10-10-10-10--|
--------------------------------------------------------|
--------------------------------------------------------|

------------10-----8----------8-----7-----------5-----4---|
----------------------------------------------------------|
----------------------------------------------------------|
7/9-9-9-9-9----9-9----6/7-7-7---7-7---4/6-6-6-----6-6-----|
----------------------------------------------------------|
----------------------------------------------------------|

That's all I got right now
I know some parts are not correct so please try to fix my mistakes
thanks
"            
Submit corrections


        Crusade lessons Hard to play? Try these video lessons and learn fast Crusade lessons
        
↑ Back to top | Tablatures and chords for acoustic guitar and electric guitar, ukulele, drums are parodies/interpretations of the original songs. You may use it for private study, scholarship, research or language learning purposes only