» » »

Trivium - Down From The Sky Bass

Artists:  A B C D E F G H I J K L M N O P Q R S T U V W X Y Z # 

Down From The Sky Bass

(ver. 2) Click to play this song!
Trivium
 Rating:
4/5 (4 votes)

 Down From The Sky lessons Tabs too difficult? Try these video lessons and learn fast
 
                Band: Trivium
Track: 03

Notes: In the pre chorus thats the riff i play, paolo plays E|-3- x8 then E|-5- x8

And in the chorus -7-x32- means you play 7 32 times, not 7 mute 32 same with the rest of 
chorus(thanks SAS bassist for pointing that out)

Tuning: Standard 5 String or a 4 string tuned to B standard

Intro
G|----------------------------------------------------------|
D|----------------------------------------------------------|
A|----------------------------------------------------------| x2
E|-------------------5--------5\3--------3/5----------------|
B|-0--------0------------------------------------5----------|

Verse-The notes are in groups of 16
G|----------------------------------------------------------------------|
D|----------------------------------------------------------------------|
A|----------------------------------------------------------------------| x2
E|-----------------------------------3333333333333333-------------------|
B|-0000000000000000-0000000000000000------------------5555555555555555--|

Pre-Chorus
G|-------------------------------------------------- | \
D|----------------------------------------------| -- |
A|----------------------------------------------| -- |
E|-7-5-7-------7-5-7-------7-5-7----------------| -- |
B|-------0-0-0-------0-0-0-------0-0-0-2--3--5--| -- |
                                                   | x2
G|-------------------------------------------|    -- |
D|-------------------------------------------|    -- |
A|-------------------------5-4-5-0-0-0-7--4--|    -- |
E|-3-2-3-0-0-0-3-2-3-0-0-0-------------------|    -- |
B|-------------------------------------------------- |    /

G|---------------------------------------|
D|---------------------------------------|
A|---------------------------------------|
E|-3-3-5-5-7-7-9-9----5-5-7-7-9-9-10-10--|
B|---------------------------------------|

Chorus
G|----------------------------|
D|----------------------------|
A|----------------------------| x2
E|-7-x32---5-x16--3-x8--2-x8--|
B|----------------------------|

Verse-The notes are in groups of 16
G|----------------------------------------------------------------------|
D|----------------------------------------------------------------------|
A|----------------------------------------------------------------------| x2
E|-----------------------------------3333333333333333-------------------|
B|-0000000000000000-0000000000000000------------------5555555555555555--|

Pre-Chorus
G|-------------------------------------------------- | \
D|----------------------------------------------| -- |
A|----------------------------------------------| -- |
E|-7-5-7-------7-5-7-------7-5-7----------------| -- |
B|-------0-0-0-------0-0-0-------0-0-0-2--3--5--| -- |
                                                   | x2
G|-------------------------------------------|    -- |
D|-------------------------------------------|    -- |
A|-------------------------5-4-5-0-0-0-7--4--|    -- |
E|-3-2-3-0-0-0-3-2-3-0-0-0-------------------|    -- |
B|-------------------------------------------------- |    /

G|---------------------------------------|
D|---------------------------------------|
A|---------------------------------------|
E|-3-3-5-5-7-7-9-9----5-5-7-7-9-9-10-10--|
B|---------------------------------------|

Chorus
G|----------------------------|
D|----------------------------|
A|----------------------------| x2
E|-7-x32---5-x16--3-x8--2-x8--|
B|----------------------------|

Breakdown-The guitar plays this once then the bass comes in
G|----------------------|
D|----------------------|
A|----------------------| x6
E|-1b-------------4-----|
B|----3/1-1-3-4-0---4b--|

Interlude Part 1
G|----|
D|----|
A|----|
E|----|
B|-0--|

Interlude Part 2
G|------------------------------------------------------------------|
D|------------------------------------------------------------------|
A|------------------------------------------------------------------|
E|-----777---------777-----666-999-----777---------777-----666-999--|
B|-000-----777-888-----333---------000-----777-888-----777----------|

G|------------------------------------------------------------------|
D|------------------------------------------------------------------|
A|------------------------------------------------------------------|
E|-----777---------777-----666-999-----777---------777-----666-999--|
B|-000-----777-888-----333---------000-----777-888-----777----------|

Solo
G|----------------------|
D|----------------------|
A|----5/3---------------| x4
E|-1b-------------4-----|
B|--------1-3-4-0---4b--|

G|----------------------|
D|----------------------|
A|----------------------|
E|-0-4----0-4----0-4----|
B|-----4------4------4--|

Pre-Chorus
G|-------------------------------------------------- | \
D|----------------------------------------------| -- |
A|----------------------------------------------| -- |
E|-7-5-7-------7-5-7-------7-5-7----------------| -- |
B|-------0-0-0-------0-0-0-------0-0-0-2--3--5--| -- |
                                                   | x2
G|-------------------------------------------|    -- |
D|-------------------------------------------|    -- |
A|-------------------------5-4-5-0-0-0-7--4--|    -- |
E|-3-2-3-0-0-0-3-2-3-0-0-0-------------------|    -- |
B|-------------------------------------------------- |    /

G|---------------------------------------|
D|---------------------------------------|
A|---------------------------------------|
E|-3-3-5-5-7-7-9-9----5-5-7-7-9-9-10-10--|
B|---------------------------------------|

Chorus
G|----------------------------|
D|----------------------------|
A|----------------------------| x2
E|-7-x32---5-x16--3-x8--2-x8--|
B|----------------------------|

Outro
G|------------------------------------------------------------------|
D|------------------------------------------------------------------|
A|------------------------------------------------------------------|
E|-----777---------777-----666-999-----777---------777-----666-999--|
B|-000-----777-888-----333---------000-----777-888-----777----------|

G|------------------------------------------------------------------|
D|------------------------------------------------------------------|
A|------------------------------------------------------------------|
E|-----777---------777-----666-999-----777---------777-----666-999--|
B|-000-----777-888-----333---------000-----777-888-----777----------|

G|----------------------|
D|----------------------|
A|----------------------|
E|-1b-------------4-----|
B|----3/1-1-3-4-0---4b--|

G|----------------------|
D|----------------------|
A|----------------------|
E|-0-4----0-4----0-4----|
B|-----4------4------4--|

G|----|
D|----|
A|----|
E|----|
B|-0--|
            
Submit corrections


        Down From The Sky lessons Hard to play? Try these video lessons and learn fast Down From The Sky lessons
        
↑ Back to top | Tablatures and chords for acoustic guitar and electric guitar, ukulele, drums are parodies/interpretations of the original songs. You may use it for private study, scholarship, research or language learning purposes only