» » »

Trivium - Down From The Sky Tabs

Artists:  A B C D E F G H I J K L M N O P Q R S T U V W X Y Z # 

Down From The Sky Tabs

(ver. 3) Click to play this song!
Trivium
 Rating:
4/5 (4 votes)

 Down From The Sky lessons Tabs too difficult? Try these video lessons and learn fast
 
                7 string

. = palm mute
\ or / = slide
~ = hammer on/ pull off
b = Bend

guitar 1 intro rythem
                          . .        . .
e[----------------------------------------------------------]
b[----------------------------------------------------------]
g[----------------------------------------------------------]
d[-------------------7--------7\5--------5/7----------------]
a[-2--------2--------7--------7\5--------5/7-----7----------]
e[-2--------2--------5----5-5-5\3----3-3-3/5-----7----------]
b[-0--------0------------------------------------5----------]
  
guitar 2 intro lead

e[----------------------------------------------------------]
b[----------------------------------------------------------]
g[------------------6~7~6-----------------------------------]
d[-7~999-9----------------7------7~999-9--------------------]
a[------------------------------------------------4~5~4\2-0-]
e[---------10~7\5-0----------------------10~7\5-0-----------]
b[----------------------------------------------------------]


e[----------------------------------------------------------]
b[----------------------------------------------------------]
g[------------------6~7~6-----------------------------------]
d[-7~999-9----------------7------7~999-9-11-11-12-12-14-14--]
a[----------------------------------------------------------]
e[---------10~7\5-0-----------------------------------------]
b[----------------------------------------------------------]

guitar 1 verse
   . . .        . . .        . . .        . . .
e[-----------------------------------------------------]
b[-----------------------------------------------------]
g[--------------------4--------------------------------]
d[--------------------x------------5-------------------] x2
a[-------2------------2------------5------------7------]
e[-------2------------2------3-3-3-3------------7------]
b[-0-0-0-0------0-0-0-0-------------------5-5-5-5------]

guitar 2 verse
   . . .        . . .        . . .    
e[----------------------------------------------------------]
b[----------------------------------------------------------]
g[--------------------4-------------------------------------]
d[--------------------x------------5------5-5-7-7-9-9-11-12-] x2
a[-------2------------2------------5------------------------]
e[-------2------------2------3-3-3-3------3-3-5-5-7-7-9--10-]
b[-0-0-0-0------0-0-0-0-------------------------------------]


guitar 1 + 2 pre chorus 
         . . .       . . .       . . .
e[----------------------------------------------]
b[----------------------------------------------]
g[----------------------------------------------]
d[----------------------------------------------]
a[----------------------------------------------]
e[-7-5-7-------7-5-7-------7-5-7----------------]
b[-------0-0-0-------0-0-0-------0-0-0-2--3--5--]

         . . .       . . .         . .
e[-------------------------------------------]
b[-------------------------------------------]
g[-------------------------------------------]
d[-------------------------------------------]
a[-------------------------5-4-5-0-0-0-7--4--] x2
e[-3-2-3-0-0-0-3-2-3-0-0-0-------------------]
b[-------------------------------------------]

guitar 1 + 2 pre chorus 

e[-------------------------------------------]
b[-------------------------------------------]
g[-------------------------------------------]
d[-5-5-7-7-9-9-11-11---7-7-9-9-11-11-12-12---] 
a[-------------------------------------------]
e[-3-3-5-5-7-7-9--9----5-5-7-7-9--9--10-10---]
b[-------------------------------------------]


guitar 1 chorus lead

e[-------------------------------------------------------------]
b[---7-5-----7-5-7-8-7-----5-----------------------------------]
g[-4-------4-----------------7---0-7-6-0-6-4-0-2-4-0-4-6-0-6-7-]
d[-----------------------7-------------------------------------] x2
a[-------------------------------------------------------------]
e[-------------------------------------------------------------]
b[-------------------------------------------------------------]

guitar 2 chorus lead octave higher than ^^^

e[----14-12-----14-12-14-15-14-------12----]
b[-12--------12-------------------------15-]
g[--------------------------------14-------]
d[-----------------------------------------]
a[-----------------------------------------]
e[-----------------------------------------]
b[-----------------------------------------]

e[-----------------------------------------]
b[-----------------------------------------]
g[-0-19-18-0-18-16-0-14-16-0-16-18-0-18-19-]
d[-----------------------------------------]
a[-----------------------------------------] x2
e[-----------------------------------------]
b[-----------------------------------------]

guitar 3 chorus rythem
                        not right. theres a riff there 
                        VVV     which i cant make out
e[-----------------------------------------]
b[-----------------------------------------]
g[-----------------------------------------]
d[-9-------7------5-----4------------------] x2
a[-9-x32---7-x16--5-x8--4-x8---------------]
e[-7-------5------3-----2------------------]
b[-----------------------------------------]


guitar 1 verse
   . . .    . .   . . .    . .   . . .        . . .
e[---------------------------------------------------------]
b[---------------------------------------------------------]
g[----------------------4----------------------------------]
d[----------------------x--------------5-------------------] x2
a[-------2--------------2--------------5------------7------]
e[-------2--------------2--------3-3-3-3------------7------]
b[-0-0-0-0--0-0---0-0-0-0--0-0----------------5-5-5-5------]

guitar 2 verse
   . . .    . .   . . .    . .   . . .    
e[--------------------------------------------------------------]
b[--------------------------------------------------------------]
g[----------------------4---------------------------------------]
d[----------------------x--------------5------5-5-7-7-9-9-11-12-] x2
a[-------2--------------2--------------5------------------------]
e[-------2--------------2--------3-3-3-3------3-3-5-5-7-7-9--10-]
b[-0-0-0-0--0-0---0-0-0-0--0-0----------------------------------]


guitar 1 + 2 pre chorus 
         . . .       . . .       . . .
e[----------------------------------------------]
b[----------------------------------------------]
g[----------------------------------------------]
d[----------------------------------------------]
a[----------------------------------------------]
e[-7-5-7-------7-5-7-------7-5-7----------------]
b[-------0-0-0-------0-0-0-------0-0-0-2--3--5--]

         . . .       . . .         . .
e[-------------------------------------------]
b[-------------------------------------------]
g[-------------------------------------------]
d[-------------------------------------------]
a[-------------------------5-4-5-0-0-0-7--4--] x2
e[-3-2-3-0-0-0-3-2-3-0-0-0-------------------]
b[-------------------------------------------]

guitar 1 + 2 pre chorus 

e[-------------------------------------------]
b[-------------------------------------------]
g[-------------------------------------------]
d[-5-5-7-7-9-9-11-11---7-7-9-9-11-11-12-12---] 
a[-------------------------------------------]
e[-3-3-5-5-7-7-9--9----5-5-7-7-9--9--10-10---]
b[-------------------------------------------]


guitar 1 chorus lead

e[-------------------------------------------------------------]
b[---7-5-----7-5-7-8-7-----5-----------------------------------]
g[-4-------4-----------------7---0-7-6-0-6-4-0-2-4-0-4-6-0-6-7-]
d[-----------------------7-------------------------------------] x2
a[-------------------------------------------------------------]
e[-------------------------------------------------------------]
b[-------------------------------------------------------------]

guitar 2 chorus lead octave higher than ^^^

e[----14-12-----14-12-14-15-14-------12----]
b[-12--------12-------------------------15-]
g[--------------------------------14-------]
d[-----------------------------------------]
a[-----------------------------------------]
e[-----------------------------------------]
b[-----------------------------------------]

e[-----------------------------------------]
b[-----------------------------------------]
g[-0-19-18-0-18-16-0-14-16-0-16-18-0-18-19-]
d[-----------------------------------------] x2
a[-----------------------------------------]
e[-----------------------------------------]
b[-----------------------------------------]

guitar 3 chorus rythem
                        not right. theres a riff there 
                        VVV     which i cant make out
e[-----------------------------------------]
b[-----------------------------------------]
g[-----------------------------------------]
d[-9-------7------5-----4------------------] x2
a[-9-x32---7-x16--5-x8--4-x8---------------]
e[-7-------5------3-----2------------------]
b[-----------------------------------------]


guitar 1 + 2 breakdown/interlude 
           . . . .
e[----------------------------]
b[----------------------------]
g[----------------------------]
d[----------------------------] x7
a[---------0-3-4-5-7----------] 
e[---------0-3-4-5-5-7--------]
b[-6b---3b-----------5--------]

guitar 1 interlude part b?

let ring--------------------------]

e[----------------------------------]
b[----------------------------------]
g[----------------------------------]
d[----------------------------------]
a[----------------------------------] x2
e[---7-----7---6-9---7-----7---6-9--]
b[-0---7-8---3-----0---7-8---7------]

guitar 2 interlude part b?

e[----------------------------------]
b[----------------------------------]
g[----------------------------------]
d[----------------------------------]
a[-2--------------------------------]
e[-2--------------------------------]
b[-0--------------------------------]

guitar 1 + 2 interlude part c?
  ... ... ... ... ... ... ... ... ... ... ... ... ... ... ... ...
e[---------------------------------------------------------------]
b[---------------------------------------------------------------]
g[---------------------------------------------------------------]
d[---------------------------------------------------------------]
a[---------------------------------------------------------------]
e[----777---------777-----666-999-----777---------777-----666-999]
b[000-----777-888-----333---------000-----777-888-----777--------]

e[---------------------------------------------------------------]
b[---------------------------------------------------------------]
g[---------------------------------------------------------------]
d[---------------------------------------------------------------]
a[---------------------------------------------------------------]
e[----777---------777-----666-999-----777---------777-----666-999]
b[000-----777-888-----333---------000-----777-888-----777--------]


guitar 1 rythem solo

           . . . .
e[----------------------------]
b[----------------------------]
g[----------------------------]
d[----------------------------] x4
a[---------0-3-4-5-7----------]     
e[---------0-3-4-5-5-7--------]
b[-6b---3b-----------5--------]

e[----------------------------]
b[----------------------------]
g[----------------------------]
d[----------------------------]
a[---7------7------7----------] 
e[-0-5-7--0-5-7--0-5-7--------]
b[-----5------5------5--------]


guitar 2 lead solo (not 100% correct!)

e[-----------------------------------------------------------------]
b[-17b-----------------------18----20b-----------------------20----]
g[-----17b----------------------16-----19b----------------------17-]
d[------------------14-16-17------------------------17-19-20-------]
a[---------14-16-17------------------------17-19-20----------------]
e[-----------------------------------------------------------------]
b[-----------------------------------------------------------------]

not the right pattern but the notes are about right
e[-19-16-12-19-16-12--18-15-12-18-15-12--17-14-11-17-14-11-]
b[---------------------------------------------------------]
g[---------------------------------------------------------]
d[---------------------------------------------------------]
a[---------------------------------------------------------]
e[---------------------------------------------------------]
b[---------------------------------------------------------]

e[-------------------------------------------]
b[----------------------------18----18-------]
g[-------------------14-16-17----16----16\---]
d[----------14-16-17-------------------------]
a[-14-16-17----------------------------------]
e[-------------------------------------------]
b[-------------------------------------------]

guitar 1 + 2 pre chorus 
         . . .       . . .       . . .
e[----------------------------------------------]
b[----------------------------------------------]
g[----------------------------------------------]
d[----------------------------------------------]
a[----------------------------------------------]
e[-7-5-7-------7-5-7-------7-5-7----------------]
b[-------0-0-0-------0-0-0-------0-0-0-2--3--5--]

         . . .       . . .         . .
e[-------------------------------------------]
b[-------------------------------------------]
g[-------------------------------------------]
d[-------------------------------------------]
a[-------------------------5-4-5-0-0-0-7--4--] x2
e[-3-2-3-0-0-0-3-2-3-0-0-0-------------------]
b[-------------------------------------------]

guitar 1 + 2 pre chorus + solo (havent got this solo!)

e[-------------------------------------------]
b[-------------------------------------------]
g[-------------------------------------------]
d[-5-5-7-7-9-9-11-11---7-7-9-9-11-11-12-12---] 
a[-------------------------------------------]
e[-3-3-5-5-7-7-9--9----5-5-7-7-9--9--10-10---]
b[-------------------------------------------]


guitar 1 chorus lead

e[-------------------------------------------------------------]
b[---7-5-----7-5-7-8-7-----5-----------------------------------]
g[-4-------4-----------------7---0-7-6-0-6-4-0-2-4-0-4-6-0-6-7-]
d[-----------------------7-------------------------------------] x2
a[-------------------------------------------------------------]
e[-------------------------------------------------------------]
b[-------------------------------------------------------------]

guitar 2 chorus lead octave higher than ^^^

e[----14-12-----14-12-14-15-14-------12----]
b[-12--------12-------------------------15-]
g[--------------------------------14-------]
d[-----------------------------------------]
a[-----------------------------------------]
e[-----------------------------------------]
b[-----------------------------------------]

e[-----------------------------------------]
b[-----------------------------------------]
g[-0-19-18-0-18-16-0-14-16-0-16-18-0-18-19-]
d[-----------------------------------------] x2
a[-----------------------------------------]
e[-----------------------------------------]
b[-----------------------------------------]

guitar 3 chorus rythem
                        not right. theres a riff there 
                        VVV     which i cant make out
e[-----------------------------------------]
b[-----------------------------------------]
g[-----------------------------------------]
d[-9-------7------5-----4------------------] x2
a[-9-x32---7-x16--5-x8--4-x8---------------]
e[-7-------5------3-----2------------------]
b[-----------------------------------------]

guitar 1 + 2 outro
  ... ... ... ... ... ... ... ... ... ... ... ... ... ... ... ...
e[---------------------------------------------------------------]
b[---------------------------------------------------------------]
g[---------------------------------------------------------------]
d[---------------------------------------------------------------]
a[---------------------------------------------------------------]
e[----777---------777-----666-999-----777---------777-----666-999]
b[000-----777-888-----333---------000-----777-888-----777--------]

e[---------------------------------------------------------------]
b[---------------------------------------------------------------]
g[---------------------------------------------------------------]
d[---------------------------------------------------------------]
a[---------------------------------------------------------------]
e[----777---------777-----666-999-----777---------777-----666-999]
b[000-----777-888-----333---------000-----777-888-----777--------]


e[----------------------------]
b[----------------------------]
g[----------------------------]
d[----------------------------]
a[---------0-3-4-5-7----------] 
e[---------0-3-4-5-5-7--------]
b[-6b---3b-----------5--------]
                      (very small bend)
e[----------------------------]
b[----------------------------]
g[----------------------------]
d[----------------------------]
a[---7------7------7----------] 
e[-0-5-7--0-5-7--0-5----------]
b[-----5------5------5b-------]

e[----------------------------]
b[----------------------------]
g[----------------------------]
d[----------------------------]
a[-2--------------------------]
e[-2--------------------------]
b[-0--------------------------]
            
Submit corrections


        Down From The Sky lessons Hard to play? Try these video lessons and learn fast Down From The Sky lessons
        
↑ Back to top | Tablatures and chords for acoustic guitar and electric guitar, ukulele, drums are parodies/interpretations of the original songs. You may use it for private study, scholarship, research or language learning purposes only