» » »

Trivium - Broken One Tabs

Artists:  A B C D E F G H I J K L M N O P Q R S T U V W X Y Z # 

Broken One Tabs

(ver. 3) Click to play this song!
Trivium
 Rating:
3.7/5 (20 votes)

 Broken One lessons Tabs too difficult? Try these video lessons and learn fast
 
                e|-------------------------------------------------------------|
B|-------------------------------------------------------------|
G|--t12--------t11----------------------t12--------t11---------|
D|---------t9--------t9----t12------t9----------t9--------t12--|
A|------t7---------t7------------t7----------t7--------t7------|
E|-------------------------------------------------------------|

e|---------------------------------------------------------------------------------------|
B|---------------------------------------------------------------------------------------|
G|--12-----------11-----------------------------------------12---------------------------|
D|----------7------------7-----12-------7-----14-------7-----------12--------------------|
A|-------5------------5--------------5--------------5-----------5------------------------|
E|---------------------------------------------------------------------------------------|

e|-------------------------------------------------------------------------------------|
B|-------------------------------------------------------------------------------------|
G|-12---------11-----------------------12--------11------------------------------------|
D|---------5--------5---12----------5---------5----------12----------------------------|
A|------3--------3---------------3---------3--------3----------------------------------|
E|-------------------------------------------------------------------------------------|

e|---------------------------------------------------------------------------------------|
B|---------------------------------------------------------------------------------------|
G|--12----------11-----------------------------------12----------------------------------|
D|----------7---------7---12--------7----14------7------------12-------------------------|
A|-------5----------5-----------5-------------5-----------5------------------------------|
E|---------------------------------------------------------------------------------------|            
Submit corrections


        Broken One lessons Hard to play? Try these video lessons and learn fast Broken One lessons
        
↑ Back to top | Tablatures and chords for acoustic guitar and electric guitar, ukulele, drums are parodies/interpretations of the original songs. You may use it for private study, scholarship, research or language learning purposes only