» » »

Trivium - Broken One Tabs

Artists:  A B C D E F G H I J K L M N O P Q R S T U V W X Y Z # 

Broken One Tabs

(ver. 1) Click to play this song!
Trivium
 Rating:
4/5 (4 votes)

 Broken One lessons Tabs too difficult? Try these video lessons and learn fast
 
                Trivium

.-palm mute
/-slide up
\-slide down
m-mute after striking note
h-hammer-on
p-pull-off
b-bend
r-release bend

Intro-0:22-1:16
Guitar 1
|----------------------------------------------------|
|----------------------------------------------------|
|-----4-----------------------4----------------------|
|-2-5---5-2-5--0-4-5-4-0--2-5---5-2-5--0-4-7-4h7p4-0-|
|----------------------------------------------------|
|----------------------------------------------------| x4

|-------------------------------------------------------|
|-------------------------------------------------------|
|-------------2-------------2-------------2-2-2/4---2---|
|-5-2--5-4-0----5-2--5-4-0----5-2--5-4-0----------5---4-|
|-------------------------------------------------------|
|-------------------------------------------------------| x2

Guitar 2
|------------------------------------------------------|
|------------------------------------------------------|
|-9-9-9-9-9-9-12-12-11-11-11\-5-5-5-5-5-5--5-5-5-4-4-4-|
|------------------------------------------------------|
|-7-7-7-7-7-7-10-10--9--9--9\-3-3-3-3-3-3--3-3-3-2-2-2-|
|------------------------------------------------------| x2

|----------------------------------------------------|
|----------------------------------------------------|
|---4-7-4---4------4--------4-7-4---4------5-2h5p2---|
|-5-------5----4-7---7-4--5-------5----4-7---------4-|
|----------------------------------------------------|
|----------------------------------------------------| x2

|-------------------------------------------------------|
|-------------------------------------------------------|
|-4----4------5-4----4------5-4----4------5-5-5/7-4-5---|
|---5----7-4------5----7-4------5----7-4--------------7-|
|-------------------------------------------------------|
|-------------------------------------------------------| x2

Verse/ 1:16-1:34
Guitar 1 and 2
|--------------------------------------------------------|
|--------------------------------------------------------|
|--------------------------------------------------------|
|-------5-------------7-------------9------5-----9-----7-|
|-----2---2---------3---3---------5---5--2---2/5---5\3---|
|-000-------0-0-000-------0-0-000------------------------| x3
  ...       . . ...       . . ...

|----------------------------------------------------|
|----------------------------------------------------|
|----------------------------------------------------|
|-------5-------------7-------------9----4-4-4-7-7-7-|
|-----2---2---------3---3---------5---5--2-2-2-5-5-5-|
|-000-------0-0-000-------0-0-000--------------------|
  ...       . . ...       . . ...        . .   . .

Pre Chorus 1:34-1:50
|-----------------------------|    |--------------------------------|
|-----------------------------|    |--------------------------------|
|-----------------------------|    |--------------------------------|
|-9\4---------------5/7-7-7\5-|    |-7/9-10\9-9\5-7/9-9/10-10/12-12-| 
|-7\2---------------3/5-5-5\3-|    |-5/7--8\7-7\5-5/7-7/-8--8/10-10-| 
|-----0-0-0-0-0-0-0-----------| x4 |--------------------------------| all x2 
      . . . . . . .

Chorus 1:50-2:10
Guitar 1
|--------------------------------------------------------------|    
|--------------------------------------------------------------|    
|-4-4\2--------------------------4-4\2-------------------------|    
|--------5---5-------5-------5---------------------------------|    
|--------3-3-3-3-3-3-3-3-3-3-3-3-------2---2-------2-------2---|    
|--------------------------------------0-0-0-0-0-0-0-0-0-0-0-0-| x2 
           .   . . .   . . .   .         .   . . .   . . .   .           

|----------|
|----------|
|-4-4\2-5\-|
|----------|
|----------|
|----------|

Guitar 2
|---------------------------------|    |---------|
|---------------------------------|    |---------|
|----------------4----------------|    |---------|
|-5-5\4--4br-4-2---2--2-4-5-4-2-4-|    |-5-5\4-7-|
|---------------------------------|    |---------|
|---------------------------------| x4 |---------|

Verse 2:10-2:26
Guitar 1 
|--------------------------------------------------------|
|--------------------------------------------------------|
|--------------------------------------------------------|
|-------5-------------7-------------9------5-----9-----7-|
|-----2---2---------3---3---------5---5--2---2/5---5\3---|
|-000-------0-0-000-------0-0-000------------------------| x3
  ...       . . ...       . . ...

|----------------------------------------------------|
|----------------------------------------------------|
|----------------------------------------------------|
|-------5-------------7-------------9----4-4-4-7-7-7-|
|-----2---2---------3---3---------5---5--2-2-2-5-5-5-|
|-000-------0-0-000-------0-0-000--------------------|
  ...       . . ...       . . ...        . .   . .

Verse Lead 1 2:10-2:26
|-----------------------|
|-----------------------|
|-12-11-14-12-12-11-9-7-|
|-----------------------|
|-10--9-12-10-10--9-7-5-|
|-----------------------| each note x8 all x2

Verse Lead 2 2:21-2:26
|----------------------| 
|----------------------| 
|-16-14-17-16-16-14-12-|
|----------------------|
|-14-12-15-14-14-12-10-| 
|----------------------| each note x 8

2:26-2:28
Guitar 1 and 2
|-------------|
|-------------|
|-------------|
|-4-4-4-7-7-7-|
|-2-2-2-5-5-5-|
|-------------|
  . .   . .

Pre Chorus 2:28-2:46
Guitar 1 and 2
|-----------------------------|    |--------------------------------|
|-----------------------------|    |--------------------------------|
|-----------------------------|    |--------------------------------|
|-9\4---------------5/7-7-7\5-|    |-7/9-10\9-9\5-7/9-9/10-10/12-12-| 
|-7\2---------------3/5-5-5\3-|    |-5/7--8\7-7\5-5/7-7/-8--8/10-10-| 
|-----0-0-0-0-0-0-0-----------| x4 |--------------------------------| all x2 
      . . . . . . .

Chorus 2:46-3:03

Backing to Solo 1 3:05-3:23
|---|-----------------------------------------------------|
|---|-----------------------------------------------------|
|---|-----------------------------------------------------|
|---|-----------------9\4-5-5/7-----------------9\4-4-4/5-|
|-2-|-----------------7\2-3-3/5-----------------7\2-2-2/3-|
|-0-|-0-0-000-0-0-000-----------0-0-000-0-0-000-----------| x3
  .   . . ... . . ...   m m     . . ... . . ...   m m

|-------------------------------------------|
|-------------------------------------------|
|-------------------------------------------|
|-----------------9\4-5-5/7-----------------|
|-----------------7\2-3-3/5-----------------|
|-0-0-000-0-0-000-----------0-0-000-0-0-000-|
  . . ... . . ...           . . ... . . ...

Break 3:23-3:32
Guitar 1 and 2 
|--------------------------------------------|
|--------------------------------------------|
|--------------------------------------------|
|-9\4-4---9-5-5---9-7-7-7-7------------------|
|-7\2-2-2-7\3-3-3-7\5-5-5-5-5555555555555555-|
|--------------------------------------------| x3
        .       .           ................


Backing to Solo 2 3:32-3:49
|-----------------------------------------------------|
|-----------------------------------------------------|
|-----------------------------------------------------|
|-9\4-4-4/5-----------------9\4-5-5/7-----------------|
|-7\2-2-2/3-----------------7\2-3-3/5-----------------|
|-----------0-0-000-0-0-000-----------0-0-000-0-0-000-| x4
    m m     . . ... . . ...   m m     . . ... . . ...

Pre verse 3:49-4:03
Guitar 1
|-------------------------------------------------------------------|
|-------------------------------------------------------------------|
|-14\9-9---14\11-11---14\12-12-12-12--------------------------------|
|-------------------------------------------------------------------|
|-12\7-7-7-12\-9--9-9-12\10-10-10-10-101010101010101010101010101010-|
|-------------------------------------------------------------------|
         .          .                . . . . . . . . . . . . . . . 

|-------------------------------------------------|
|-------------------------------------------------|
|-14\9-9---14\11-11---14\7-7-7-7------------------|
|-------------------------------------------------|
|-12\7-7-7-12\-9--9-9-12\5-5-5-5-5555555555555555-|
|-------------------------------------------------| all x2
         .          .            ................

Guitar 2
|--------------------------------------------|
|--------------------------------------------|
|--------------------------------------------|
|-9\4-4---9-5-5---9-7-7-7-7------------------|
|-7\2-2-2-7\3-3-3-7\5-5-5-5-5555555555555555-|
|--------------------------------------------| x4
        .       .           ................

Pre Chorus 4:03-4:23

Last Chorus 4:23-5:12
Guitar 1 does not come in the 1st time until here *
|--------------------------------------------------------------|   
|--------------------------------------------------------------|    
|-4-4\2--------------------------4-4\2-------------------------|    
|--------5---5-------5-------5---------------------------------|    
|--------3-3-3-3-3-3-3-3-3-3-3-3-------2---2-------2-------2---|    
|--------------------------------------0-0-0-0-0-0-0-0-0-0-0-0-| x2 
           .   . . .   . . .   .       * .   . . .   . . .   .     
                                       *
|----------|
|----------|
|-4-4\2-5\-|
|----------|
|----------| 
|----------|
                                    
Guitar 2
|---------------------------------|    |---------|
|---------------------------------|    |---------|
|----------------4----------------|    |---------|
|-5-5\4--4br-4-2---2--2-4-5-4-2-4-|    |-5-5\4-7-|
|---------------------------------|    |---------|
|---------------------------------| x4 |---------|

Ending 5:12-5:49
Guitar 1
|-------------------------------|
|-------------------------------|
|-----------4---------------2---|
|-5-2-4br-2---0--5--2-4br-2---0-|
|-------------------------------|
|-------------------------------|

Guitar 2
|------------------------------|
|------------------------------|
|-4---------7----4---------4---|
|---5-7br-5---5----5-7br-5---5-|
|------------------------------|
|------------------------------|
            
Submit corrections


        Broken One lessons Hard to play? Try these video lessons and learn fast Broken One lessons
        
↑ Back to top | Tablatures and chords for acoustic guitar and electric guitar, ukulele, drums are parodies/interpretations of the original songs. You may use it for private study, scholarship, research or language learning purposes only