» » »

Trivium - Blinding Tears Will Break The Skies Tabs

Artists:  A B C D E F G H I J K L M N O P Q R S T U V W X Y Z # 

Blinding Tears Will Break The Skies Tabs

(ver. 3) Click to play this song!
Trivium
 Rating:
4/5 (4 votes)

 Blinding Tears Will Break The Skies lessons Tabs too difficult? Try these video lessons and learn fast
 
                ___________________________________________________________________________|
TRIVIUM:                                                                   |
___________________________________________________________________________|
BLINDING TEARS WILL BREAK THE SKIES (the first decent version)             |
___________________________________________________________________________|

 Drop D tuning, (Dadgbe)

This sounds correct although i worked it out myself so it is possible that there may mistakes.


 Intro:

 |--------------------|
 |--------------------|
 |--------------------|
 |--------------------|
 |10h12p10p0h7h10p7p0-|
 |--------------------|

 Verse pt1:

 |----------------------------------------------------------|
 |----------------------------------------------------------|
 |----------------------------------------------------------|
 |-7-------------8------8---7-------------------------------|
 |-5-------------8------8---5---------10h12p10p07h10p7p0----|
 |--0000000---8-8--10-10-----0000000------------------------|
 PM -------   - -   -  -     -------

 verse pt2:

|-------------------------------------------------------------------------|
|-------------------------------------------------------------------------|
|-------------------------------------------------------------------------|
|-------------------------------------------------------------------------|
|----------7h8p7p0---------7h8p7p0----------7h8p7p0------------------7h8p7|
|0000-0000--------0000-0000--------8888-8888--------10101010-10101010-----|
 ---- ----        ---- ----        ---- ----         - - - -  - - - -

chorus pt1:

|-----------------------------------------------------------------------|
|-----------------------------------------------------------------------|
|-----------------------------------------------------------------------|
|---0-----0--0--8--8-8--5--5-5--5---0-----0--0--8--8-8--10--10-10--10---|
|---0-----0--0--8--8-8--5--5-5--5---0-----0--0--8--8-8--10--10-10--10---|
|---0-0-0-0--0--8--8-8--5--5-5--5---0-0-0-0--0--8--8-8--10--10-10--10---|
pm    - -                             - -

chorus pt2:

e|---------------------------------------------------------------------------------------------|
B|--11----11-10---10-------------------------------------------------------------10-11-10------|
G|-----10------------12---12--12-10-12-10-9-10--9-10-9----------9-10-9--------------------10---|
D|-----------------------------------------------------12-10-12--------12-10-12----------------|
A|---------------------------------------------------------------------------------------------|
D|---------------------------------------------------------------------------------------------|

chorus pt3:

e|------------------------------------------------------------------------------------------------|
B|-11----11-10----11-10----10-x-10----10------------------------------------------10-11-10--------|
G|----10-------12-------12---------12----12-10-9--9-10-9----------9-10-9-------------------10-----|
D|-------------------------------------------------------12-10-12--------12-10-12-----------------|
A|------------------------------------------------------------------------------------------------|
D|------------------------------------------------------------------------------------------------|

|----------------------------------------------------------------------------------------|
|----------------------------------------------------------------------------------------|
|----------------------------------------------------------------------------------------|
|----------------------------------------------------------------------------------------|
|----------------------------------------------------------------------------------------|
|---00--00-----00--00-----00--00-----00--00-----00--00-----00--00-----00--00-----00--00--|
PM  --  --     --  --     --  --     --  --     --  --     --  --     --  --     --  --

|------------------------------------------|
|------------------------------------------|
|------------------------------------------|
|---0--2--3--5--3--2---0--2--3--8--7--3----|
|---0--2--3--5--3--2---0--2--3--8--7--3----|
|---0--2--3--5--3--2---0--2--3--8--7--3----|


solo:

Im still trying to work out the solo, when i get it right i will submit it as a solo 
It might take a while though......

outro:

|-------------------------------------------------|
|-------------------------------------------------|
|-------------------------------------------------|
|-------------------------------------------------|
|-------------------------------------------------|
|-----00--00-----00--00-----00--00-----00--00-----|
PM    --  --     --  --     --  --     --  --


Please rate my tab......(5*)


 / = slide up
 \ = slide down
 h = hammer-on
 p = pull-off
 ~ = vibrato

____________________________________________________________________________
____________________________________________________________________________
            
Submit corrections


        Blinding Tears Will Break The Skies lessons Hard to play? Try these video lessons and learn fast Blinding Tears Will Break The Skies lessons
        
↑ Back to top | Tablatures and chords for acoustic guitar and electric guitar, ukulele, drums are parodies/interpretations of the original songs. You may use it for private study, scholarship, research or language learning purposes only