» » »

Trivium - Blinding Tears Will Break The Skies Tabs

Artists:  A B C D E F G H I J K L M N O P Q R S T U V W X Y Z # 

Blinding Tears Will Break The Skies Tabs

(ver. 1) Click to play this song!
Trivium
 Rating:
4/5 (4 votes)

 Blinding Tears Will Break The Skies lessons Tabs too difficult? Try these video lessons and learn fast
 
                Band- Trivium
Song- Blinding Tears Will Break The Skies

Intro (play 4 times, 2x fast, 2x a little bit slower)

|-----------------------| 
|-----------------------| 
|-----------------------| 
|-----------------------| 
|10h12p10p0--7h10p7p0---| 
|-----------------------|

Verse

|-------------------------------|
|-------------------------------|
|-------------------------------| 
|-------------------------------|
|--5-------------8-----8------8-|
|---0-0-0-0-0-0-0---8-8--10-10--|
PM   . . . . . . .   . .  .  .	
    
then

|----------------------------------------|
|----------------------------------------|
|----------------------------------------|
|----------------------------------------|
|--5-------------8--10h12p10p0--7h10p7p0-|
|---0-0-0-0-0-0-0------------------------|
PM   . . . . . . .

Pre Chorus (play 4x)

|----------------------------------------------------------------------------------------------------|
|----------------------------------------------------------------------------------------------------|
|----------------------------------------------------------------------------------------------------| 
|----------------------------------------------------------------------------------------------------|
|----------------7h8p7p0--------------7h8p7p0--------------7h8p7p0--------------------7h8p7p0--------|
|---0-0-0--0-0-0---------0-0-0--0-0-0---------8-8-8--8-8-8---------10-10-10--10-10-10----------------|
Pm  . . .  . . .         . . .  . . .         . . .  . . .          .  .  .   .  .  .

Chorus (not 100% sure about this)

|----------------------------------------------------------------|
|----------------------------------------------------------------|
|----------------------------------------------------------------| repeat
|---0-------0-----------8--------------5----------8--------10----|
|---0-------0-----------8--------------5----------8--------10----|
|---0-0-0-0-0-----------8--------------5----------8--------10----|

After chorus, repeat Verse,Pre Chorus and Chorus then you play this

|-------------------------------|
|-------------------------------|
|-------------------------------| repeat as often as needed
|-------------------------------|
|-------------------------------|
|---0-0--0-0-----0-0--0-0-------|


 then you play this (its also the rythm lying under the solo)
|----------------------------------------------------------------|
|----------------------------------------------------------------|
|----------------------------------------------------------------| 
|---0-2-3-5-3-2---0-2-3-8-7-3------------------------------------|
|---0-2-3-5-3-2---0-2-3-8-7-3------------------------------------|
|---0-2-3-5-3-2---0-2-3-8-7-3------------------------------------|

after the solo you go back to intro and then straight into chorus

songs ends with this

|-------------------------------|
|-------------------------------|
|-------------------------------| repeat as often as needed
|-------------------------------|
|-------------------------------|
|---0-0--0-0-----0-0--0-0-------|
            
Submit corrections


        Blinding Tears Will Break The Skies lessons Hard to play? Try these video lessons and learn fast Blinding Tears Will Break The Skies lessons
        
↑ Back to top | Tablatures and chords for acoustic guitar and electric guitar, ukulele, drums are parodies/interpretations of the original songs. You may use it for private study, scholarship, research or language learning purposes only