» » »

Triumph - Rock 'n Roll Machine Tabs

Artists:  A B C D E F G H I J K L M N O P Q R S T U V W X Y Z # 

Rock 'n Roll Machine Tabs

(ver. 1) Click to play this song!
Triumph
 Rating:
4/5 (4 votes)


 Rock 'n Roll Machine lessons Tabs too difficult? Try these video lessons and learn fast
 
                alright this i just updated. hope it helps.

e|----------------------------------|
b|----------------------------------|              x-muffed notes
g|----------------------------------| repeat
d|-12-xxx-10------12\-15-14---------|
a|-10-xxx-8--10xx-10\-13-12--15-----|
e|----xxx----8-xx------------13-----|


e|-------------------------------------------------|
b|-------------------------------------------------|
g|-------------------------------------------------|
d|-12-xxx-10------12\-15-14---------12-10----------|
a|-10-xxx-8--10xx-10\-13-12--15-----10-8-10-10-10--|
e|----xxx----8-xx------------13-----------8-8-8----|

e|----------------------------------------|
b|----------------------------------------|
g|----------------------------------------| repeat 4 times then
d|------------------------------3---------|
a|-3/55555--3/555555--3/555555--1--3------|
e|-1/33333--1/333333--1/333333---0-1------|
     pm      pm       pm


e|----------------------|
b|----------------------|
g|----------------------|
d|3---3---3---3---------|
a|1-3-1-3-1-3-1---------|
e|--1---1---1-----------|

e|-------------------------------------------|---------------------------|
b|-------------------------------------------|---------------------------|
g|-------------------------------------------|---------------------------|
d|-5555/8----------------555555\3------------|--5555/8--------------3----|
a|-3333/6----6p5h7p5h----333333\1--1p0h1p0h--|--3333/6---6p5h7p5h---1-3--|
e|--------------------6---------------------1|--------------------6---1--|
                         pm pick fast
I'm not really sure about this riff im pretty sure its right.
e|--------------------------|
b|--------------------------|
g|--------------------------| drum fill
d|-------------------55-----|
a|-3---------0-1-2-0-33-----|
e|--0-1-2-3-4---------------|

e|----------------------------------------|
b|----------------------------------------|
g|----------------------------------------| repeat 4 times
d|------------------------------3---------|
a|-3/55555--3/555555--3/555555--1--3------|
e|-1/33333--1/333333--1/333333---0-1------|
     pm      pm       pm

e|----------------------|
b|----------------------|
g|----------------------|
d|3---3---3---3---------|
a|1-3-1-3-1-3-1---------|
e|--1---1---1-----------|

e|-------------------------------------------|---------------------------|
b|-------------------------------------------|---------------------------|
g|-------------------------------------------|---------------------------|
d|-5555/8----------------555555\3------------|--5555/8--------------3----|
a|-3333/6----6p5h7p5h----333333\1--1p0h1p0h--|--3333/6---6p5h7p5h---1-3--|
e|--------------------6---------------------1|--------------------6---1--|
                         pm pick fast



e|---------------------------|
b|---------------------------|
g|---------------------------| drum fill
d|-------------------55------|
a|-3---------0-1-2-0-33------|
e|---0-1-2-3-4---------------|

e|----------------------------------|
b|----------------------------------|              x-muffed notes
g|----------------------------------|
d|-12-xxx-10------12\-15-14---------|
a|-10-xxx-8--10xx-10\-13-12--15-----|
e|----xxx----8-xx------------13-----|


e|-------------------------------------------------|
b|-------------------------------------------------|
g|-------------------------------------------------|
d|-12-xxx-10------12\-15-14---------12-10----------|
a|-10-xxx-8--10xx-10\-13-12--15-----10-8-10--------|
e|----xxx----8-xx------------13-----------8--------|

e|----------------|----------------------------| then just swich back and
b|----------------|----------------------------|forth REALLY FAST.
g|----------------|----------------------------|
d|10-8----8-6-----|-------3-3-3-3-3------------|
a|8--6-8--6-4--6--|55555--0h1p0h1p0--5-3-555555|
e|-----6-------4--|33333-------------3\1/333333|
                  pm....                pm.....
                                         pick fast


                                   solo time
e|-----------------------------------------------------------------------|
b|-------------------------------|15-15----15-15-------------------------|
g|-------------------------------|15-15----15-15-------------------------|
d|33333333333-55555555555555-----|15-15-17-15-15-17-15-171717171717171717|
a|11111111111-33333333333333-----|---------------------------------------|
e|-----------------------------------------------------------------------|
  trem pick                                           trem pick FAST!!!


e|----------------------------------------|
b||15-15----15-15-------------------------|
g||15-15----15-15-------------------------|
d||15-15-17-15-15-17-15-171717171717171717|
a|----------------------------------------|
e|----------------------------------------|
  trem pick

e|----------------------------------------|
b||15-15----15-15-------------------------|
g||15-15----15-15-------------------------|
d||15-15-17-15-15-17-15-171717171717171717|
a|----------------------------------------|
e|----------------------------------------|
  trem pick

e|----------------------------------------|
b||15-15----15-15-------------------------|
g||15-15----15-15-------------------------|
d||15-15-17-15-15-17-15-171717171717171717|
a|----------------------------------------|
e|----------------------------------------|
  trem pick

for the next part trem pick each note.

e|---------------------|-20b(22)---|
b|---------------------|-----------|
g|-15-17-10-15-8-13-6-7|-----------|
d|---------------------|-----------|
a|---------------------|-----------|
e|---------------------|-----------|
i don't have the the bends he up up the fretboard but i have the other part.
e|------------------------------------------|
b|------------------------------------------|
g|-12-12-12-12-12-12-15-12-17-12-15-12-17---|
d|------------------------------------------|
a|------------------------------------------|
e|------------------------------------------|
keep trem picking this whole riff . after you play the 2 times speed it up.


I can't tell what frets but he just goes down the fretboard trem picking every note.
e|---------------------|------------|
b|---------------------|------------|
g|15trem pick down then|0/5-0/5-0/5-|
d|---------------------|------------|
a|---------------------|------------|
e|---------------------|------------|


e|-------------------------------------------------|
b|-10b(12)-10b(12)-10b(12)-10b(12)-10b(12)-10b(12)-|
g|-------------------------------------------------|
d|-------------------------------------------------|
a|-------------------------------------------------|
e|-------------------------------------------------|

e|------------------|
b|------------------|
g|---4-7-5-4-5-7\0--|
d|-5----------------|
a|------------------|
e|------------------|

this part is awsome... i don't even pick this part i only use the left hand.

e|---------------------------------------------------------------|
b|---------------------------------------------------------------|
g|-7p4p0-7p4p0-7p4p0-7p4p0-7p4p0-9p6p0-9p6p0-9p6p0-9p6p0-9p6p0---|
d|---------------------------------------------------------------|
a|---------------------------------------------------------------|
e|---------------------------------------------------------------|

e|-----------------------------------------------------------------|
b|-----------------------------------------------------------------|
g|-7p4p0-7p4p0-7p4p0-7p4p0-7p4p0-----------------------------------|
d|------------------------------7p4p0-7p4p0-7p4p0-7p4p0-7p4p0------|
a|-----------------------------------------------------------------|
e|-----------------------------------------------------------------|

e|---------------------------------------------------------------|
b|---------------------------------------------------------------|
g|-7p4p0-7p4p0--9p6p0-9p6p0-7p4p0-7p4p0--------------------------|
d|--------------------------------------7p4p0-7p4p0--------------|
a|---------------------------------------------------------------|
e|---------------------------------------------------------------|

e|---------------------------------------|
b|---------------------------------------|
g|7p4p0-7p4p0--9p6p0-9p6p0---------------|
d|------------------------7p4p0-7p4p0-h5-|
a|---------------------------------------|
e|---------------------------------------|

The rest of the solo is rediculus and i'm not even going to atemmt to figure it out.
            
Submit corrections



        Rock 'n Roll Machine lessons Hard to play? Try these video lessons and learn fast Rock 'n Roll Machine lessons
        
↑ Back to top | Tablatures and chords for acoustic guitar and electric guitar, ukulele, drums are parodies/interpretations of the original songs. You may use it for private study, scholarship, research or language learning purposes only