» » »

Trisha Yearwood - New Kid In Town Tabs

Artists:  A B C D E F G H I J K L M N O P Q R S T U V W X Y Z # 

New Kid In Town Tabs

(ver. 2) Click to play this song!
Trisha Yearwood
 Rating:
4/5 (4 votes)

 New Kid In Town lessons Tabs too difficult? Try these video lessons and learn fast
 
                New Kid In Town (Bassline)
As recorded by Trisha Yearwood
By Don Henley, Glenn Frey & John David Souther


Gtr I Bass

        Intro
  Q=108
 4/4
  Gtr I
  W      Q  E E +Q   Q    Q  E E +Q   Q
|-----||------4-(4)-----|------4-(4)-----|
|-----||-2--------------|-2-----------2--|
|-----||-------------2--|----------------|
|-----||----------------|----------------|


  Q  E E +Q   Q    Q  E E +Q   Q    Q  E E +Q   Q    Q  E E +Q   Q
|----------------|----------------|----------------|---------------|
|------4-(4)-----|------4-(4)-----|------2-(2)-----|------4-(4)----|
|-2--------------|-2-----------2--|-0-----------4--|-2-----------2-|
|-------------2--|----------------|----------------|---------------|


                                    Verse 1
  Q  E E +Q   Q    Q  E E +Q   Q     Q  E E +Q   Q    Q  E E +Q   Q
|------4-(4)-----|------4-(4)-----||------4-(4)-----|------4-(4)----|
|-2--------------|-2--------------||-2--------------|-2-----------2-|
|-------------2--|-------------2--||-------------2--|---------------|
|----------------|----------------||----------------|---------------|


  Q  E E +Q   Q    Q  E E +Q   Q    Q  E E +Q   Q    Q  E E +Q   Q
|----------------|----------------|----------------|---------------|
|------4-(4)-----|------4-(4)-----|------2-(2)-----|------4-(4)----|
|-2--------------|-2-----------2--|-0-----------4--|-2-----------2-|
|-------------2--|----------------|----------------|---------------|


  Q  E E +Q   Q    Q  E  E  +Q    Q     Q  E  E  +Q   Q    Q  E E +Q   Q
|------4-(4)-----|-9----16-(16)------|-------------------|------4-(4)----|
|-2--------------|-------------------|-------------------|-2-----------2-|
|-------------2--|---------------14--|-------14-(14)--2--|---------------|
|----------------|-------------------|-12----------------|---------------|


  Q  E E +Q   Q    Q  E E +Q   Q    Q  E E +Q   Q    Q  E E +Q   Q
|----------------|----------------|----------------|---------------|
|------4-(4)-----|------4-(4)-----|------2-(2)-----|------4-(4)----|
|-2--------------|-2-----------2--|-0-----------4--|-2-----------2-|
|-------------2--|----------------|----------------|---------------|


                                                     Chorus
  Q  E E +Q   Q    Q  E E +Q   Q    Q  E E +Q   Q     Q  E E +Q   Q
|------4-(4)-----|----------------|----------------||------6-(6)----|
|-2-----------2--|----------------|------6-(6)--5--||-4-----------6-|
|----------------|------6-(6)-----|-4--------------||---------------|
|----------------|-4-----------4--|----------------||---------------|


  Q  E E +Q   Q    Q  E E +Q   Q    Q  E E +Q   Q    Q  E E +Q   S S E
|----------------|------6-(6)-----|----------------|------6-(6)--------|
|------6-(6)--5--|-4-----------6--|------6-(6)--5--|-4-----------6-----|
|-4--------------|----------------|-4--------------|-------------------|
|----------------|----------------|----------------|-------------------|


                                    Verse 2
  Q  E E +Q   Q    Q  E E +Q   Q     W          +H     +Q   Q
|----------------|----------------||----------|---------------|
|----------------|------4-(4)-----||----------|---------------|
|------4-(4)-----|-2-----------2--||----------|---------------|
|-2-----------2--|----------------||-0--------|-(0)----(0)----|


  Q  E E +Q   +S  S E   Q  E E +Q   +S  S E   Q  E E +Q   Q    Q  E E +Q   Q
|---------------------|---------------------|----------------|---------------|
|---------------------|---------------------|------2-(2)-----|------4-(4)----|
|------2-(2)--(2)-----|------2-(2)--(2)-----|-0-----------4--|-2-----------2-|
|-2-------------------|-2-------------------|----------------|---------------|


  Q  E E +Q   Q    Q  E E +Q   Q    Q  E E +Q   Q    Q  E E +Q   Q
|------4-(4)-----|------4-(4)-----|------4-(4)-----|------4-(4)----|
|-2--------------|-2--------------|-2--------------|-2-----------2-|
|-------------2--|-------------2--|-------------2--|---------------|
|----------------|----------------|----------------|---------------|


  Q  E E +Q   Q    Q  E E +Q   Q    Q  E E +Q   Q    Q  E E +Q   Q
|----------------|----------------|----------------|---------------|
|------4-(4)-----|------4-(4)-----|------2-(2)-----|------4-(4)----|
|-2--------------|-2-----------2--|-0-----------4--|-2-----------2-|
|-------------2--|----------------|----------------|---------------|


                                    Chorus
  Q  E E +Q   Q    Q  E E +Q   Q     Q  E E +Q   Q    Q  E E +Q   Q
|------4-(4)-----|----------------||----------------|------6-(6)----|
|-2-----------2--|------1-(1)-----||------6-(6)--5--|-4-----------6-|
|----------------|-0--------------||-4--------------|---------------|
|----------------|-------------4--||----------------|---------------|


  Q  E E +Q   Q    Q  E E +Q   Q    Q  E E +Q   Q    Q  E E +Q   S S E
|----------------|------6-(6)-----|----------------|------6-(6)--------|
|------6-(6)--5--|-4-----------6--|------6-(6)--5--|-4-----------6-----|
|-4--------------|----------------|-4--------------|-------------------|
|----------------|----------------|----------------|-------------------|


                                    Guitar Solo
  Q  E E +Q   Q    Q  E E +Q   Q     Q  E E +Q   Q    Q  E E +Q   Q
|----------------|----------------||------4-(4)-----|------4-(4)----|
|----------------|------4-(4)-----||-2--------------|-2-----------2-|
|------4-(4)-----|-2-----------2--||-------------2--|---------------|
|-2-----------2--|----------------||----------------|---------------|


  Q  E E +Q   Q    Q  E E +Q   Q    Q  E E +Q   Q    Q  E E +Q   Q
|----------------|----------------|----------------|---------------|
|------4-(4)-----|------4-(4)-----|------2-(2)-----|------4-(4)----|
|-2--------------|-2-----------2--|-0-----------4--|-2-----------2-|
|-------------2--|----------------|----------------|---------------|


                                 Bridge
  Q  E E +Q   Q    Q  Q  Q  Q     Q  E E +Q   Q    Q  E E +Q   Q
|------4-(4)-----|-2--1--------||----------------|---------------|
|-2-----------2--|-------4--2--||------4-(4)-----|------4-(4)----|
|----------------|-------------||-2--------------|-2-----------2-|
|----------------|-------------||-------------2--|---------------|


  Q  E E +Q   Q    Q  E E +Q   Q    Q  E E +Q   Q    Q  E E +Q   Q
|------4-(4)-----|------4-(4)-----|----------------|---------------|
|-2--------------|-2-----------2--|------4-(4)-----|------4-(4)----|
|-------------2--|----------------|-2--------------|-2-----------2-|
|----------------|----------------|-------------2--|---------------|


  Q  E E +Q   Q    Q  E E +Q   Q    Q  E E +Q   Q    Q  +S  S E Q  Q
|----------------|------6-(6)-----|----------------|------------------||
|------6-(6)-----|-4-----------6--|-7----7-(7)-----|------------------||
|-4-----------4--|----------------|-------------7--|-5--(5)-----7--9--||
|----------------|----------------|----------------|------------------||


 Verse 3
   Q  E  E  +Q    Q     Q  E  E  +Q    Q
|--------------------|--------------------|
|-------12-(12)------|-------12-(12)------|
|-10-----------------|-10-------------12--|
|----------------10--|--------------------|


  Q  E  E  +Q    +S  S E   Q  E  E  +Q   E S S
|------------------------|----------------------|
|------------------------|----------------------|
|-0----------------------|-0---------------0----|
|------10-(10)--(10)-----|------10-(10)---------|


  Q  E  E  +Q   Q     Q  E  E  +Q    Q
|------------------|--------------------|
|------------------|--------------------|
|------10-(10)-----|-------12-(12)------|
|-8-------------8--|-10-------------10--|


   Q  E  E  +Q    Q     Q  E  E  +Q    Q
|--------------------|-------------------|
|-------12-(12)------|-------12-(12)-----|
|-10-----------------|-10-------
            
Submit corrections


        New Kid In Town lessons Hard to play? Try these video lessons and learn fast New Kid In Town lessons
        
↑ Back to top | Tablatures and chords for acoustic guitar and electric guitar, ukulele, drums are parodies/interpretations of the original songs. You may use it for private study, scholarship, research or language learning purposes only