Home » T » Trigun »

Trigun - Sound Of Life Tabs

Artists:  A B C D E F G H I J K L M N O P Q R S T U V W X Y Z # 

Sound Of Life Tabs

(ver. 1) Click to play this song!
Trigun
Sound of Life
 Trigun

Unless someone out there desperately needs the rest
of the song (which is comprised of solos) I'm
not really going to bother tabbing the rest of the solos.
The same rythym is played for the song... not to sound
like a major dick or anything, it's just I've got other
stuff to do. The person that requested it specifically
requested the rythym. Anyways:

 Rytyhm (for whole song)
---------0--0-0------
---------1--0-1-0-1-- 
---------0--0-0-0-0--
---------0--0-0-0-0-- 
-----3-3-3--3-3-3-3--
-3s5-3-3-3--3-3------ 


guitar solos;

 first
-s13-12-10----------------------------------------------
-----------s13-11-10-------------------------8----6-5--- 
----------------------14-14-12-10-9-7-5-5--7---7------7- 
-------------------------------------------------------- 
-------------------------------------------------------- 
-------------------------------------------------------- 

 second
-------------- 
-------------- 
-----7-5-5-5-- 
--8B---------- 
--------------
-------------- 

 third
----------------- 
-----------------
-----9H10P9------ 
--8B--------H10-- 
----------------- 
----------------- 

 fourth
---------------------------- 
-8H10-----------------------  
--------------7-----------5- 
-------S8B--8--8-7------5--- 
---------------------S7----- 
----------------------------

 fifth
------------------------------------------5-3-5-3H5P3--S8-6-5------
-S10P8----6-6-5----------S6-5-6-5H6P5------------------------------
--------7--------------5----------------5-----------------------5--
---------------------5---------------------------------------------
-------------------7-----------------------------------------------

-13-12-10----------------------------------------------------
----------13-11-10--11-11-10-8-6-5--5H6P5-----6-5---------5--
------------------------------------------7-5-----7-5---5----
------------------------------------------------------7------
-------------------------------------------------------------
-------------------------------------------------------------
            
Submit corrections

↑ Back to top | Tablatures and chords for acoustic guitar and electric guitar, ukulele, drums are parodies/interpretations of the original songs. You may use it for private study, scholarship, research or language learning purposes only