Home » T » Trigun »

Trigun - Rakuen Tabs

Artists:  A B C D E F G H I J K L M N O P Q R S T U V W X Y Z # 

Rakuen Tabs

(ver. 1) Click to play this song!
Trigun
donuts happy pack
                   


  / - slide up                       
  \ - slide down
  h - hammer on	                     
  p - pull off                       
  x - percussive mute, mute


Drop D tuning, played with fingers

Intro
|----------------------------------------------------------------------------|
|-------3---3----3---3---3---3----3-3-3----3---------------------------------|
|--0----0---0----0-0-0---0---0----0-0-0----0---------------------------------|
|--0----0---0----0-0-0---0---0----0-0-0----0---------------------------------| 
|--x----x---x----x-x-x---x---x----x-x-x----x---------------------------------|
|--5----2-0-3----3/5-2---2-0-3----3\1-1----3---------------------------------|

riff A                                                                           
|-----------------------------------------------------------------------------|
|----------0---------------------------------------0h1-3----------------------|
|------0-2---5p4p2p0---------0-----0-----------0-2-0-----0---------0-----0----|
|----0---------------0-----0-----0-----0-----0-------------0-----0-----0-----0|
|----------------------2/3-----3-----2-----------------------2/3-----3-----2--|
|--5---------------------------------------5----------------------------------|
 
interlude 
|----------------------------------------------------------------------------|
|----------------------------------------------------------------------------|
|-------0-----0-------0-----0-----------0-----0-------0-----0----------------|
|---0-------0---0---0---0-0---0-0---0-------0---0---0---0-0---0-0------------|
|----------------------------------------------------------------------------|
|-5---5---5-------5---------------5---5---5-------5--------------------------|

 riff B
|-------------------------------------------------------------------------
|---------3---------------------------------------------------------------
|-----0-2-0-2-0-----0-2---0-2---0-----------------------------------------   
|---0-------------4-------------------------------------------------------   
|---------------3-------3-----2-------------------------------------------   
|-5-----------------------------------------------------------------------
play riff B, 4 times

then do riff A

then repeat riff B, 3 times

then do:
riff B end variation
|---------------------------------------------------------------------------|
|-----0---0-----------1-3-----1-3-------------------------------------------|
|-----4---2-0-------0-------0-----------------------------------------------| 
|---0-0---0-----2---------1-------------------------------------------------|
|---------------------------------------------------------------------------|
|-5-----5-----5-------------------------------------------------------------|
then play interlude again

                                                         this 3 is not 
heard 
                                                         first time 
through 
 La la la riff                                                |
|----------------------------------------------------------------------------
|---------3-----3-----3-1---0-------------3-----3-----3-1-----3--------------
|-----0-2-2---2-----0---------0-------0-2-2---2-----0-------0---0------------
|---0-----3-3-----2-------1-----1---0-----3-3-----2-------1------------------
|----------------------------------------------------------------------------
|-5-------------------------------5------------------------------------------

 la la riff continued
|-----------------------------------------------------------------|
|---------3-----3----------------------------3-3----0----0--------|
|-----0-2-2---2-----0-2---0-2------------0-2-4-2----0----0--------|
|---0-----4-4-----------------4-0------0-----0-0----2----2--------|
|-----------------3-----3-----------------------------------------|
|-5------------------------------2h4h5------------4---------------|


interlude B
play 3 times(after first time it starts on 5, no hammer on stuff)
then go to next bar
|------------------------
|-------------1/3-3---3--
|---------0-2-0---0------
|-------0----------------
|------------------------
|-2h4h5------------------

|------------|
|---------3--|
|-----0-2----|
|---0--------|
|------------|
|-5----------|


chorus, repeat twice                            this is last measure
|-------------------------------------------------|-----------------
|-------------------------3-----------------------|--------3--------
|-----0-2-----0-2-------0---2-0-------0-2-----0-2-|----0-2---2-0----
|---4-------4---------0---------4---4-------4-----|--4-----------4--
|-3-----------------4-------------3---------------|-----------------
|---------0-------5-----------------------0-------|2----------------

chorus ending
|----------------------|
|---------3------------|
|-----0-2-0---let ring-|
|---4------------------|
|---2------------------|
|-2--------------------|


 
play twice
|---------------------------------------------------------------------------
|---------------3-1-----1-----1---------------------------------------------
|-----0-2-2/4---0-----0-----0-----------------------------------------------
|---0-----0---0-----3-----3-----2-0-----------------------------------------
|---------------------------------------------------------------------------
|-5-------------------------------------------------------------------------

then
|-----------------------0----------------------------------------------|
|---------------3-3-------1--------------0---0------------1-3-----1-3--|
|-----0-2-2/4---0-----0------------------4---2-0--------0-------0------|
|---0-----0---0-----3-------3----2-0---0-0---0-----2----------1--------|
|----------------------------------------------------------------------|
|-5----------------------------------5-----5-----5---------------------|

then the song starts repeating
it goes back to:

interlude 

la la la riff

chorus - repeat twice like before and then chorus ending

interlude B - 3 times then next bar like before

chorus - repeat 4 times but on 4th time skip last measure and do

riff A

and then this ending

|------------------------------------------------------------------------------
|----------0---------------------------------------0h1-3---------------3-------
|------0-2---5p4p2p0---------0-----0-----------0-2-0-----0-----------0---2-0---
|----0---------------0-----0-----0-----0-----0-------------0-----0-----------4-
|----------------------2/3-----3-----2-----------------------2/3---3-----------
|--5---------------------------------------5-----------------------------------

|------------------|
|-3---3--3------3--|
|-0---0--------0---|
|-0---0-------0----|
|-x---x------x-----|
|-3---1-----2------|

Hope you enjoy, it took a fairly long time to figure out, but it's slow 
and easy to play, 
talk.

<<--------------------------------------------------->>
Give him your thanks, not me!
<<--------------------------------------------------->>
            
Submit corrections

↑ Back to top | Tablatures and chords for acoustic guitar and electric guitar, ukulele, drums are parodies/interpretations of the original songs. You may use it for private study, scholarship, research or language learning purposes only