Home » T » Traveling Wilburys »

Traveling Wilburys - End Of The Line Tabs

Artists:  A B C D E F G H I J K L M N O P Q R S T U V W X Y Z # 

End Of The Line Tabs

(ver. 3) Click to play this song!
Traveling Wilburys
(Intro)
This is a very simple but classic riff from the late George Harrison.
All this intro is is triads. This is one of my personal favorites from the Wilburys, but 
one had the correct tab on line. I wrote in the ttriads above the notes, NOT THE CHORDS.


      G         D      G          A  D
e|----7-7-7-7-7/2-2--2/7-7-7-7-7--9--10---------------------|
B|----8-8-8-8-8/3-3--3/8-8-8-8-8--10-10---------------------|
G|----7-7-7-7-7/2-2- 2/7-7-7-7-7--9--11---------------------|
D|-0--------------------------------------------------------|
A|----------------------------------------------------------|
E|----------------------------------------------------------|

      G         A   G A   D
e|----7-7-7-7-7/9---7-9---15----------------------------------|
B|----8-8-8-8-8/10--8-10--16----------------------------------|
G|----7-7-7-7-7/9---7-9---15----------------------------------|
D|-0----------------------------------------------------------|
A|------------------------------------------------------------|
E|------------------------------------------------------------|

---Enjoy
            
Submit corrections

↑ Back to top | Tablatures and chords for acoustic guitar and electric guitar, ukulele, drums are parodies/interpretations of the original songs. You may use it for private study, scholarship, research or language learning purposes only