» » »

Traveling Wilburys - Handle With Care Bass

Artists:  A B C D E F G H I J K L M N O P Q R S T U V W X Y Z # 

Handle With Care Bass

(ver. 1) Click to play this song!
Traveling Wilburys
 Rating:
3.4/5 (5 votes)

 Handle With Care lessons Tabs too difficult? Try these video lessons and learn fast
 
                HANDLE WITH CARE

Written by The Traveling Wilburys

INTRO

G|---------------------------------|---------------------------------|
D|-0---0---0---0-------------------|---------------------------------|
A|-----------------3---3---3---3---|-2---2---2-----------------------|
E|---------------------------------|-------------3---3---3---3---3---|

G|---------------------------------|---------------------------------|
D|-0---0---0---0-------------------|---------------------------------|
A|-----------------3---3---3---3---|-2---2---2-----------------------|
E|---------------------------------|-------------3---3---3---3---3---|

VERSE

G|---------------------------------|---------------------------------|
D|-0---0---0---0-------------------|---------------------------------|
A|-----------------3---3---3---3---|-2---2---2-----------------------|
E|---------------------------------|-------------3---3---3---3---3---|

G|---------------------------------|---------------------------------|
D|-0---0---0---0-------------------|---------------------------------|
A|-----------------3---3---3---3---|-2---2---2-----------------------|
E|---------------------------------|-------------3---3---3---3---3---|

G|---------------------------------|---------------------------------|
D|---------------------------------|---------------------------------|
A|-3---3---3---3---3---3---3---3---|---------------------------------|
E|---------------------------------|-3---3---3---0---0---0---0---0---|

G|---------------------------------|---------------------------------|
D|---------------------------------|---------------------------------|
A|-3---3---3---3---5---5---5---5---|---------------------------------|
E|---------------------------------|-3---3---3---3---3---------------|

VERSE

G|---------------------------------|---------------------------------|
D|-0---0---0---0-------------------|---------------------------------|
A|-----------------3---3---3---3---|-2---2---2-----------------------|
E|---------------------------------|-------------3---3---3---3---3---|

G|---------------------------------|---------------------------------|
D|-0---0---0---0-------------------|---------------------------------|
A|-----------------3---3---3---3---|-2---2---2-----------------------|
E|---------------------------------|-------------3---3---3---3---3---|

G|---------------------------------|---------------------------------|
D|---------------------------------|---------------------------------|
A|-3---3---3---3---3---3---3---3---|---------------------------------|
E|---------------------------------|-3---3---3---0---0---0---0---0---|

G|---------------------------------|---------------------------------|
D|---------------------------------|---------------------------------|
A|-3---3---3---3---3---3---3---3---|-5---5---5---5---5---5---5---5---|
E|---------------------------------|---------------------------------|

BRIDGE

G|---------------------------------|---------------------------------|
D|---------------------------------|-----------------0---0---0---0---|
A|-----------------2---2---2---2---|-3---3---3---3-------------------|
E|-3---3---3---3-------------------|---------------------------------|

G|---------------------------------|---------------------------------|
D|---------------------------------|-----------------0---0---0---0---|
A|-----------------2---2---2---2---|-3---3---3---3-------------------|
E|-3---3---3---3-------------------|---------------------------------|

G|---------------------------------|---------------------------------|
D|---------------------------------|-----------------0---0---0---0---|
A|-----------------2---2---2---2---|-3---3---3---3-------------------|
E|-3---3---3---3-------------------|---------------------------------|

G|---------------------------------|---------------------------------|
D|---------------------------------|---------------------------------|
A|---------------------------------|---------------------------------|
E|-3---3---3---3---3---3---3---3---|-3---3---3---3---3---3---3---3---|

CHORUS

G|---------------------------------|---------------------------------|
D|---------------------------------|---------------------------------|
A|-3---3---3---3---3---3---3---3---|-3---3---3---3---3---3---3---3---|
E|---------------------------------|---------------------------------|

G|---------------------------------|---------------------------------|
D|---------------------------------|---------------------------------|
A|---------------------------------|---------------------------------|
E|-3---3---3---3---3---3---3---3---|-3---3---3---3---3---3---3---3---|

G|---------------------------------|---------------------------------|
D|---------------------------------|---------------------------------|
A|-3---3---3---3---3---3---3---3---|-3---3---3---3---3---3---3---3---|
E|---------------------------------|---------------------------------|

G|---------------------------------|---------------------------------|
D|-0---0---0---0-------------------|---------------------------------|
A|-----------------3---3---3---3---|-2---2---2---2---0---0---0---0---|
E|---------------------------------|---------------------------------|

VERSE

G|---------------------------------|---------------------------------|
D|-0---0---0---0-------------------|---------------------------------|
A|-----------------3---3---3---3---|-2---2---2-----------------------|
E|---------------------------------|-------------3---3---3---3---3---|

G|---------------------------------|---------------------------------|
D|-0---0---0---0-------------------|---------------------------------|
A|-----------------3---3---3---3---|-2---2---2-----------------------|
E|---------------------------------|-------------3---3---3---3---3---|

G|---------------------------------|---------------------------------|
D|---------------------------------|---------------------------------|
A|-3---3---3---3---3---3---3---3---|---------------------------------|
E|---------------------------------|-3---3---3---0---0---0---0---0---|

G|---------------------------------|---------------------------------|
D|---------------------------------|---------------------------------|
A|-3---3---3---3---5---5---5---5---|---------------------------------|
E|---------------------------------|-3---3---3---3---3---------------|

GUITAR SOLO

G|---------------------------------|---------------------------------|
D|-0---0---0---0-------------------|---------------------------------|
A|-----------------3---3---3---3---|-2---2---2-----------------------|
E|---------------------------------|-------------3---3---3---3---3---|

G|---------------------------------|---------------------------------|
D|-0---0---0---0-------------------|---------------------------------|
A|-----------------3---3---3---3---|-2---2---2-----------------------|
E|---------------------------------|-------------3---3---3---3---3---|

VERSE

G|---------------------------------|---------------------------------|
D|-0---0---0---0-------------------|---------------------------------|
A|-----------------3---3---3---3---|-2---2---2-----------------------|
E|---------------------------------|-------------3---3---3---3---3---|

G|---------------------------------|---------------------------------|
D|-0---0---0---0-------------------|---------------------------------|
A|-----------------3---3---3---3---|-2---2---2-----------------------|
E|---------------------------------|-------------3---3---3---3---3---|

G|---------------------------------|---------------------------------|
D|---------------------------------|---------------------------------|
A|-3---3---3---3---3---3---3---3---|---------------------------------|
E|---------------------------------|-3---3---3---0---0---0---0---0---|

G|---------------------------------|---------------------------------|
D|---------------------------------|---------------------------------|
A|-3---3---3---3---3---3---3---3---|-5---5---5---5---5---5---5---5---|
E|---------------------------------|---------------------------------|

BRIDGE

G|---------------------------------|---------------------------------|
D|---------------------------------|-----------------0---0---0---0---|
A|-----------------2---2---2---2---|-3---3---3---3-------------------|
E|-3---3---3---3-------------------|---------------------------------|

G|---------------------------------|---------------------------------|
D|---------------------------------|-----------------0---0---0---0---|
A|-----------------2---2---2---2---|-3---3---3---3-------------------|
E|-3---3---3---3-------------------|---------------------------------|

G|---------------------------------|---------------------------------|
D|---------------------------------|-----------------0---0---0---0---|
A|-----------------2---2---2---2---|-3---3---3---3-------------------|
E|-3---3---3---3-------------------|---------------------------------|

G|---------------------------------|---------------------------------|
D|---------------------------------|---------------------------------|
A|---------------------------------|---------------------------------|
E|-3---3---3---3---3---3---3---3---|-3---3---3---3---3---3---3---3---|

CHORUS

G|---------------------------------|---------------------------------|
D|---------------------------------|---------------------------------|
A|-3---3---3---3---3---3---3---3---|-3---3---3---3---3---3---3---3---|
E|---------------------------------|---------------------------------|

G|---------------------------------|---------------------------------|
D|---------------------------------|---------------------------------|
A|---------------------------------|---------------------------------|
E|-3---3---3---3---3---3---3---3---|-3---3---3---3---3---3---3---3---|

G|---------------------------------|---------------------------------|
D|---------------------------------|---------------------------------|
A|-3---3---3---3---3---3---3---3---|-3---3---3---3---3---3---3---3---|
E|---------------------------------|---------------------------------|

G|---------------------------------|---------------------------------|
D|-0---0---0---0-------------------|---------------------------------|
A|-----------------3---3---3---3---|-2---2---2---2---0---0---0---0---|
E|---------------------------------|---------------------------------|

VERSE

G|---------------------------------|---------------------------------|
D|-0---0---0---0-------------------|---------------------------------|
A|-----------------3---3---3---3---|-2---2---2-----------------------|
E|---------------------------------|-------------3---3---3---3---3---|

G|---------------------------------|---------------------------------|
D|-0---0---0---0-------------------|---------------------------------|
A|-----------------3---3---3---3---|-2---2---2-----------------------|
E|---------------------------------|-------------3---3---3---3---3---|

G|---------------------------------|---------------------------------|
D|---------------------------------|---------------------------------|
A|-3---3---3---3---3---3---3---3---|---------------------------------|
E|---------------------------------|-3---3---3---0---0---0---0---0---|

G|---------------------------------|---------------------------------|
D|---------------------------------|---------------------------------|
A|-3---3---3---3---5---5---5---5---|---------------------------------|
E|---------------------------------|-3---3---3---3---3---------------|

GUITAR SOLO

G|---------------------------------|---------------------------------|
D|-0---0---0---0-------------------|---------------------------------|
A|-----------------3---3---3---3---|-2---2---2-----------------------|
E|---------------------------------|-------------3---3---3---3---3---|

G|---------------------------------|---------------------------------|
D|-0---0---0---0-------------------|---------------------------------|
A|-----------------3---3---3---3---|-2---2---2-----------------------|
E|---------------------------------|-------------3---3---3---3---3---|

G|---------------------------------|---------------------------------|
D|---------------------------------|---------------------------------|
A|-3---3---3---3---3---3---3---3---|---------------------------------|
E|---------------------------------|-3---3---3---0---0---0---0---0---|

G|---------------------------------|---------------------------------|
D|---------------------------------|---------------------------------|
A|-3---3---3---3---5---5---5---5---|---------------------------------|
E|---------------------------------|-3---3---3---3---3---------------|

OUTRO

G|---------------------------------|---------------------------------|
D|-0---0---0---0-------------------|---------------------------------|
A|-----------------3---3---3---3---|-2---2---2-----------------------|
E|---------------------------------|-------------3---3---3---3---3---|

G|---------------------------------|---------------------------------|
D|-0---0---0---0-------------------|---------------------------------|
A|-----------------3---3---3---3---|-2---2---2-----------------------|
E|---------------------------------|-------------3---3---3---3---3---|

G|---------------------------------|---------------------------------|
D|-0---0---0---0-------------------|---------------------------------|
A|-----------------3---3---3---3---|-2---2---2-----------------------|
E|---------------------------------|-------------3---3---3---3---3---|

G|---------------------------------|
D|-0---0---0---0-------------------|
A|-----------------3---3---3---3---|
E|---------------------------------|FADE OUT
            
Submit corrections


        Handle With Care lessons Hard to play? Try these video lessons and learn fast Handle With Care lessons
        
↑ Back to top | Tablatures and chords for acoustic guitar and electric guitar, ukulele, drums are parodies/interpretations of the original songs. You may use it for private study, scholarship, research or language learning purposes only