» » »

Trapt - Echo Tabs

Artists:  A B C D E F G H I J K L M N O P Q R S T U V W X Y Z # 

Echo Tabs

(ver. 2) Click to play this song!
Trapt
 Rating:
4/5 (8 votes)

 Echo lessons Tabs too difficult? Try these video lessons and learn fast
 
                Trapt - Echo
hey, I couldn't find one version of this song that was really close to perfect, so I
took a swing at it. Note: i did refer to other tabs for somethings. I played this tab
a few times to make sure it's the best i can make, so tell me what you think of it, i
hope you enjoy it.

Standard tuning
* = Harmonic

Intro
Guitar 1
|---------------|-------------|---------------|-------------|
|---------------|-------------|---------------|-------------|
|---------------|-------------|---------------|-------------|
|----2--4--7----|--2--4-------|----2--4--7----|--2--4-------|
|----0--2--5----|--0--2--4----|----0--2--5----|--0--2--4----|
|---------------|--------2----|---------------|--------2----|
|
|Guitar 2
|---------------|-------------|---------------|--------12*--|
|---------------|-------------|---------------|-------------|
|---------------|-------------|---------------|-------------|
|---------------|-------------|---------------|-------------|
|---------------|-------------|---------------|-------------|
|---------------|-------------|---------------|-------------|

Pre-chorus 1
Guitar 1 stops playing in the next part, but if you'd like to play the keyboard, here it
second line i don't know about, but i put it in anyway. It's up to you what you want to
do about it, but i would just play the first line over and over.)

First part (keyboard arr. for guitar)
|--------------------------------------------------------|
|--------9--10--9--------9--10--9------------------------|
|--11--9----------9----9----------9--11------------------|
|-------------------12-----------------------------------|
|--------------------------------------------------------|
|--------------------------------------------------------|
|
|Guitar 2(listen for it, these should be right)
|--------------------------------------------------------|
|--10----------------------------------------------------|
|--------------------------------------------------------|
|--------------------------------------------------------|
|--------------------------------------------------------|
|--------------------------------------------------------|


Second part (keyboard arr. for guitar)
|--------------------------------------------------------|
|--------9--10--9-------------10--9----------9--10-------|
|--11--9----------9--11--9----------9--11--9-------------|
|--------------------------11----------------------------|
|--------------------------------------------------------|
|--------------------------------------------------------|
|
|Guitar 2
|--------------------------------------------------------|
|--7----9----10----9-------------------------------------|
|--------------------------------------------------------|
|--------------------------------------------------------|
|--------------------------------------------------------|
|--------------------------------------------------------|


First part (keyboard arr. for guitar)
|--------------------------------------------------------|
|--------9--10--9--------9--10--9------------------------|
|--11--9----------9----9----------9--11------------------|
|-------------------12-----------------------------------|
|--------------------------------------------------------|
|--------------------------------------------------------|
|
|Guitar 2
|--------------------------------------------------------|
|--10----------------------------------------------------|
|--------------------------------------------------------|
|--------------------------------------------------------|
|--------------------------------------------------------|
|--------------------------------------------------------|


Second part (keyboard arr. for guitar)
|--------------------------------------------------------|
|--------9--10--9-------------10--9----------9--10-------|
|--11--9----------9--11--9----------9--11--9-------------|
|--------------------------11----------------------------|
|--------------------------------------------------------|
|--------------------------------------------------------|
|
|Guitar 2
|--------------------------------------------------------|
|--7----9----10----12------------------------------------|
|--------------------------------------------------------|
|--------------------------------------------------------|
|--------------------------------------------------------|
|--------------------------------------------------------|


Chorus
Both Guitars w/ Distortion
|---------------|-------------|---------------|-------------|
|---------------|-------------|---------------|-------------|
|---------------|-------------|---------------|-------------|
|----2--4--7----|--2--4-------|----2--4--7----|--2--4-------|
|----0--2--5----|--0--2--4----|----0--2--5----|--0--2--4----|
|---------------|--------2----|---------------|--------2----|


Verse
Guitar 1 stops again
Guitar 2 (clean)[you can add chorus or flanger to make up for the sounds in the background]
|---------------------------|-----------------------|
|-----10----10----9---9---9-|----9---9---7---7---7--|
|--11----11-----9---9---9---|--9---9---7---7---7----|  6x
|---------------------------|-----------------------|
|---------------------------|-----------------------|
|---------------------------|-----------------------|


Bridge 
Guitar 1
|-------------------------|-------------------------|
|-------------------------|-------------------------|
|-------------------------|-------------------------|
|-2~~---4~~---7~~~~-------|-2~~--4~~----------------|
|-0~~---2~~---5~~~~-------|-0~~--2~~---4~~~~--------|
|-------------------------|------------2~~~~--------|
|
|Guitar 2                                               2x
|-------------------------|-------------------------|
|-10-10-12-12-14-14-14-14-|-10-10-12-12-14-14-14-14-|
|-11-11-13-13-14-14-14-14-|-11-11-13-13-14-14-14-14-|
|-------------------------|-------------------------|
|-------------------------|-------------------------|
|-------------------------|-------------------------|


Pre-chorus 2
Both Guitars w/ Distortion
|--------------|--------------|
|--------------|--------------|
|--------------|--------------|
|--7--7--7--7--|--4--4--4--4--|   2x
|--7--7--7--7--|--4--4--4--4--|
|--5--5--5--5--|--2--2--2--2--|


Chorus
Both Guitars w/ Distortion
|---------------|-------------|---------------|-------------|
|---------------|-------------|---------------|-------------|
|---------------|-------------|---------------|-------------|
|----2--4--7----|--2--4-------|----2--4--7----|--2--4-------|
|----0--2--5----|--0--2--4----|----0--2--5----|--0--2--4----|
|---------------|--------2----|---------------|--------2----|


Solo
Guitar 1 late this ring out
|------|
|------|
|------|
|------|
|--4~~-|
|--2~~-|
|
|Guitar 2
|--------------------------------------------------------------------------|
|-9h10-10h12-9h10-10h12-9h10-10h12-12/14~-14-12-10-12-10-9-10-9-7-9-7-5-7~~|
|--------------------------------------------------------------------------|
|--------------------------------------------------------------------------|
|--------------------------------------------------------------------------|
|--------------------------------------------------------------------------|



Intro
Pre-chorus 1
chorus
verse
Bridge
pre-chorus 2
chorus
verse
Bridge
Pre-chorus 2
chorus
Solo
chorus(less distortion)
Pre-chorus 1
chorus

That's it. If I made any mistakes or just any comments in general,
just put them where you leave comments. well, that's all...later
            
Submit corrections


        Echo lessons Hard to play? Try these video lessons and learn fast Echo lessons
        
↑ Back to top | Tablatures and chords for acoustic guitar and electric guitar, ukulele, drums are parodies/interpretations of the original songs. You may use it for private study, scholarship, research or language learning purposes only