Home » T » Transplants »

Transplants - Romper Stomper Tabs

Artists:  A B C D E F G H I J K L M N O P Q R S T U V W X Y Z # 

Romper Stomper Tabs

(ver. 3) Click to play this song!
Transplants
e-----------------------------------------------------
b-----------------------------------------------------
g-----------------------------------------------------
d-----------------------------------------------------
a-1---0---2-------------------------------------------
E-1---0---2-------------------------------------------

this is played through out the song but is quite quiet compared to the other 
instuments


e-----------------------------------------------------
b-----------------------------------------------------
g-----------------------------------------------------
d-----------------------------------------------------
a-----------------7-5-8-------------------------------
E-5-3-6---5-3-6---5-3-6-------------------------------

thats the main riff. Its played thru out the song.
            
Submit corrections

↑ Back to top | Tablatures and chords for acoustic guitar and electric guitar, ukulele, drums are parodies/interpretations of the original songs. You may use it for private study, scholarship, research or language learning purposes only