» » »

Transplants - D.J. D.J Tabs

Artists:  A B C D E F G H I J K L M N O P Q R S T U V W X Y Z # 

D.J. D.J Tabs

(ver. 3) Click to play this song!
Transplants
 Rating:
4/5 (4 votes)

 D.J. D.J lessons Tabs too difficult? Try these video lessons and learn fast
 
                Transplants 
DJ DJ

Intro
e-------------
b-------------
G-9--4-7-8-9--
D-9--4-7-8-9--
A-7--2-5-6-7--
E-------------

e-------------------
b-------------------
G-9-4-7-8--98989898-
D-9-4-7-8--98989898-
A-7-2-5-6--76767676-
E-------------------

Verse
e--------------------
b-99------12-12------
G-99--99--11-11--99--
D-99--77--9--9---77--
A-77-----------------
E--------------------

Chours
e-------------------
b-------------------
G-------------9-----
D-11--9--7-7--9--9--
A-11--9--7-7--7--9--
E-9---7--5-5--0--7--

Solo  *-hold   ^-bend up
e----------------------------------------------------------------------------
b----------------------------------------------------------------------------
G----------------------------------------------------------------------------
D----------------------------------------------------------------------------
A-7*-9^-7----7*---7-10-10-10-9-7---7*--------777-----------------------------
E---------9----9----------------9-----7-9-10-----10-9-3^-0*-4h5-7-4h5-2-3^-0-

Solo Con't
e----------------------------------
b----------------------------------
G----------------------------------
D----------------------------------
A----------------------5-7*-9^-7*--
E-4h5h7-4h5-2-3^-0*--7-------------

Thats as easy as it gets....Im not positive about the solo...
            
Submit corrections


        D.J. D.J lessons Hard to play? Try these video lessons and learn fast D.J. D.J lessons
        
↑ Back to top | Tablatures and chords for acoustic guitar and electric guitar, ukulele, drums are parodies/interpretations of the original songs. You may use it for private study, scholarship, research or language learning purposes only