» » »

Transplants - Diamonds & Guns Tabs

Artists:  A B C D E F G H I J K L M N O P Q R S T U V W X Y Z # 

Diamonds & Guns Tabs

(ver. 1) Click to play this song!
Transplants
 Rating:
4/5 (4 votes)

 Diamonds & Guns lessons Tabs too difficult? Try these video lessons and learn fast
 
                
Piano
E--------------------------------------------|
B--------------------------------------------|
G--------------------------------------------|
D------5---5-4-3--------5---5-4-3------------|
A—--3------------6---3-----------------------|
E--------------------------------------------|

Intro / Chorus
E----------------------------------------------|
B----------------------------------------------|
G--5---5-5-----------3---5---5-5-----------3---|
D--5---5-5--5---5-5--3---5---5-5--5---5-5--3---|
A--3---3-3--5---5-5--1—--3---3-3--5---5-5--1---|
E-----------3---3-3---------------3---3-3------|

Verse
E--------------------------------------|
B--------------------------------------|
G--5---5-5-----------5---5-5-----------|
D--5---5-5-----------5---5-5-----------|
A--3---3-3-----------3---3-3-----------|
E--------------------------------------|

Bridge
E--------------------------------------------|
B--------------------------------------------|
G---77777777-----------77777777--------------|
D---77777777-777777777-77777777-77777777-----|
A---55555555-777777777-55555555-77777777-----|
E------------555555555----------55555555-----|

Enjoy
            
Submit corrections


        Diamonds & Guns lessons Hard to play? Try these video lessons and learn fast Diamonds & Guns lessons
        
↑ Back to top | Tablatures and chords for acoustic guitar and electric guitar, ukulele, drums are parodies/interpretations of the original songs. You may use it for private study, scholarship, research or language learning purposes only