» » »

Trace Bundy - Canon Tabs

Artists:  A B C D E F G H I J K L M N O P Q R S T U V W X Y Z # 

Canon Tabs

(ver. 3) Click to play this song!
Trace Bundy
 Rating:
4/5 (12 votes)

 Canon lessons Tabs too difficult? Try these video lessons and learn fast
 
                ================================================================================
         Title : Pachelbels Canon
        Artist : Trace Bundy
         Album : Adapt
================================================================================

This is my first real attempt at tablature, but this is such a cool song & everyone
to play it so I had to
sure i was in the right place now & again. In the video of him playing this live, its a
bit different here & there, but overall its the same. There are 1 or 2 small bits that i
i play differently, like using different fingers for a particular note for example,
i find my way easier and 99% of this is accurate. Another important thing to point out
that the tab isnt exactly spaced as it should be played, they're just spaced so that its
you should know how the song supposed to sound and shouldn't need me to space everything
right musically. Also this song has LOTS of hammer-ons & pull-offs, and
no way in hell i was going to write out all the h's & p's in the tab. Again, if you're
on learning this, you should know how its meant to sound & therefore you shouldn't need
to write them.

For reference:

trace bundys version:

my version:

my slow version:

cheers & have fun!

TUNING - This song is in a tuning known as DADGAD for the obvious reason of thats how
strings are tuned. The 2 'E' strings are tuning down 1 tone to 'D' & the 'B' string is
down 1 tone to 'A'

e - d
B - A
G - G
D - D
A - A
E - D

Capo on 2nd Fret

Legend
------
/ \  = slide up/down
<12> = natural harmonic


D|4------------------2-------------------0----------------------------------------|
A|-----------------------------------------------------------4--------------------|
G|--------------------------------------------------------------------------------|
D|--------------------------------------------------------------------------------|
A|0------------------7-------------------9-------------------4--------------------|
D|0------------------7-------------------9-------------------4--------------------|

D|---------------------------------------------------------------------------------|
A|2------------------0---------------------------------------4-------------------0-|
G|---------------------------------------4-----------------------------------------|
D|---------------------------------------------------------------------------------|
A|5------------------0-------------------5-------------------7---------------------|
D|5------------------0-------------------5-------------------7---------------------|

D|4---0---4---2---0--2----0-------------------------------------------------------|
A|-----------------------------4/5--------0---5---4---2---0--4----0---------4-----|
G|--------------------------------------------------------------------------------|
D|---------------------------------------------------------------------4----------|
A|0------------------7-------------------9-------------------4--------------------|
D|0------------------7-------------------9-------------------4--------------------|

D|-----------------------5--4--0--2--0--------------------5-----------------------|
A|2---0---2---4---5----0-----------------2---0---5---0---------------7---0---7/14-|
G|---------------------------------------------------------------6----------------|
D|--------------------------------------------------------------------------------|
A|5------------------0-------------------5-------------------7--------------------|
D|5------------------0-------------------5-------------------7--------------------|


D|---------------4----------------------------------------------------------------|
A|----------5----------------2---0---4-------------------5------------------4-----|
G|-----2-----------------------------------------4---0-----------------2----------|
D|-----------------------2-----------------2/4--------------------4---------------|
A|0------------------7-------------------9-------------------4--------------------|
D|0------------------7-------------------9-------------------4--------------------|

D|---------------------------------<12>-------------------------------------------|
A|---------------5-----------<12>-----------------------5-------------------7-----|
G|----------4--------------------------------------4-------------------6----------|
D|-----5---------------<12>-------------------5-------------------7---------------|
A|5------------------0-------------------5-------------------7--------------------|
D|5------------------0-------------------5-------------------7--------------------|


D|---------------4----------------------------------------------------------------|
A|----------5----------------2---0---4-------------------5------------------4-----|
G|-----2-----------------------------------------4---0-----------------2----------|
D|-----------------------2-----------------2/4--------------------4---------------|
A|0------------------7-------------------9-------------------4--------------------|
D|0------------------7-------------------9-------------------4--------------------|

D|---------------------------------<12>-----------------5--------------------7---0-|
A|---------------5-----------<12>------------------5-------------------7--0--------|
G|----------4---------------------------------4-------------------6----------------|
D|-----5---------------<12>--------------------------------------------------------|
A|5------------------0-------------------5-------------------7---------------------|
D|5------------------0-------------------5-------------------7---------------------|

D|7-0-4-0-5-0-7-0-4-0-5-0-7-0-------------2-0-4-0-5-0-4-0-----2-0-4-0----------------------------------------|
A|----------------------------2-0-4-0-5-0-----------------5-0------------------------------------------------|
G|-----------------------------------------------------------------------------2-0-4-0-2-0-----2-0---------2-|
D|---------------------------------------------------------------------4-0-5-0-------------5-0-----4-0-5-0---|
A|0-----------------------7---------------------------9------------------------4-----------------------------|
D|0-----------------------7---------------------------9------------------------4-----------------------------|

D|---------------------------------------------------------------------------------------------2-0-4-0-5/7--0--|
A|------------------------------------------------------------------4-0-5-0--------2-0-4-0-5-0-----------------|
G|0----4-0-2-0----------------------------------2-0-4-0-4-0-2-0-4-0------------4-0-----------------------------|
D|----------------4-0-2-0-4-0-2-0-----2-0-4-0-5----------------------------------------------------------------|
A|5-----------------------0-------5-0-----------------5------------------------7-------------------------------|
D|5-----------------------0---------------------------5------------------------7-------------------------------|

D|7-0-4-0-5-0-7-0-4-0-5-0-7-0-------------2-0-4-0-5-0-4-0-----2-0-4-0----------------------------------------|
A|----------------------------2-0-4-0-5-0-----------------5-0------------------------------------------------|
G|-----------------------------------------------------------------------------2-0-4-0-2-0-----2-0---------2-|
D|---------------------------------------------------------------------4-0-5-0-------------5-0-----4-0-5-0---|
A|0-----------------------7---------------------------9------------------------4-----------------------------|
D|0-----------------------7---------------------------9------------------------4-----------------------------|

D|---------------------------------------------------------------------------------------------2-0-4-0-5/7--0--|
A|------------------------------------------------------------------4-0-5-0--------2-0-4-0-5-0-----------------|
G|0----4-0-2-0----------------------------------2-0-4-0-4-0-2-0-4-0------------4-0-----------------------------|
D|----------------4-0-2-0-4-0-2-0-----2-0-4-0-5----------------------------------------------------------------|
A|5-----------------------0-------5-0-----------------5------------------------7-------------------------------|
D|5-----------------------0---------------------------5------------------------7-------------------------------|

D|4-0-----2-0-4-0-2-0-----------------2-0-4-0-2-0--------------------------------------------------------------|
A|----5-0-------------5-0-5-0-4-0-5-0-------------5-0-4-0-5-0-2-0-4-0-5----------------------------5-0-4-0-5-0-|
G|-------------------------------------------------------------------------------------------------------------|
D|----------------------------------------------------------------------------2-0--4-0-5-0-4-0-2-0-------------|
A|0-----------------------7-------------------------------9---------------5-0------4---------------------------|
D|0-----------------------7-------------------------------9------------------------4---------------------------|

D|-----------------------------------------------------------------------------------------------------------------|
A|----5-0-4-0-2-0---------------------------------4-0-5-0------5-0-4-0-5-0-4\2-0-----4/5-0-5/7\5-0-4/5\4-0-2-0-4-0-|
G|4-0-------------2-0-----2-0-------------2-0-4-0---------4--0-----------------------------------------------------|
D|--------------------5-0-----5-0-4-0-5-0--------------------------------------------------------------------------|
A|5-----------------------0-------------------------------5--------------------------7-----------------------------|
D|5-----------------------0-------------------------------5--------------------------7-----------------------------|

D|4---0---2---4---0--2-0-----------------------------------------------------------|
A|-----------------------4---5/7---4-----5--4--2--4--5--2----4---2---0---2---4---0-|
G|---------------------------------------------------------------------------------|
D|---------------------------------------------------------------------------------|
A|0------------------7-------------------9-------------------4---------------------|
D|0------------------7-------------------9-------------------4---------------------|

D|-------------------------------------------------------------------------2--0---|
A|----------------------------------5-0----------------------4--0--2--4/5---------|
G|4---0---2---4---0--2---0------2-0------4---0---2---4---0------------------------|
D|--------------------------4-0---------------------------------------------------|
A|5------------------0-------------------5-------------------7--------------------|
D|5------------------0-------------------5-------------------7--------------------|

D|4---0---2---4---0--2-0-----------------------------------------------------------|
A|-----------------------4---5/7---4-----5--4--2--4--5--2----4---2---0---2---4---0-|
G|---------------------------------------------------------------------------------|
D|---------------------------------------------------------------------------------|
A|0------------------7-------------------9-------------------4---------------------|
D|0------------------7-------------------9-------------------4---------------------|

D|---------------------------------------------------------------------------------------2-4-2-0-4-5-4-0-5/7--------------|
A|----------------------------------5-0----------------------4-0-2-4-2-0-4-5-4-0-5-7-5-0----------------------------------|
G|4---0---2---4---0--2---0------2-0------4---0---2---4---0----------------------------------------------------------------|
D|--------------------------4-0-------------------------------------------------------------------------------------------|
A|5------------------0-------------------5-------------------7------------------------------------------------/0----------|
D|5------------------0-------------------5-------------------7------------------------------------------------/0--0-0-0-0-|


                   * start of

                     picking part


D|4---0-2-4---0---------------------------------------------------|
A|----------------7-----5-7-------5---2-4-5---2---4---0-2-4---0---|
G|--------------------6-------6-----------------------------------|
D|----------------------------------------------------------------|
A|----------------0-0-0-0-0-0-0-0-2-2-2-2-2-2-2-2-----------------|
D|0-0-0-0-0-0-0-0---------------------------------4-4-4-4-4-4-4-4-|

D|------------------------------------------------------------------|
A|----------------------------05-0------------------4---0-2-4--/7-5-|
G|4---0-2-2/4--0---2-------2-------4---0-2-2/4--0-------------------|
D|---------------------4-5------------------------------------------|
A|--------------------------------------------------0-0-0-0-0-0-0-0-|
D|5-5-5-5-5--5-5-5-0-0-0-0-0-0-0-0-5-5-5-5-5--5-5-5-----------------|

D|4---0-2-4---0---------------------------------------------------|
A|----------------7-----5-7-------5---2-4-5---2---4---0-2-4---0---|
G|--------------------6-------6-----------------------------------|
D|----------------------------------------------------------------|
A|----------------0-0-0-0-0-0-0-0-2-2-2-2-2-2-2-2-----------------|
D|0-0-0-0-0-0-0-0---------------------------------4-4-4-4-4-4-4-4-|

D|------------------------------------------------------------------|
A|----------------------------05-0------------------4---0-2-4--/7-5-|
G|4---0-2-2/4--0---2-------2-------4---0-2-2/4--0-------------------|
D|---------------------4-5------------------------------------------|
A|--------------------------------------------------0-0-0-0-0-0-0-0-|
D|5-5-5-5-5--5-5-5-0-0-0-0-0-0-0-0-5-5-5-5-5--5-5-5-----------------|

D|7-----7-----7---7---9---7---5---4-----4-----4---4---5---4---2-0---|
A|--0-----0-----0---0---0---0---0---0-----0-----0---0---0---0-----0-|
G|----7-----7-------------------------0-----0-----------------------|
D|------------------------------------------------------------------|
A|----------------0---------------2---------------------------------|
D|0-----------------------------------------------4-----------------|

D|0-----------------------------<5>--0--------------------------<7>-|
A|----3-\-2-/-3---3/5-----5--------------3-\-2-/-3---3/4---4/7------|
G|------------------------------------------------------------------|
D|------------------------------------------------------------------|
A|---------------------------------------------------0--------------|
D|5---------------0----0-----0-------5------------------------------|

D|7-----7-----7---7---9---7---5---4-----4-----4---4---5---4---2-0---|
A|--0-----0-----0---0---0---0---0---0-----0-----0---0---0---0-----0-|
G|----7-----7-------------------------0-----0-----------------------|
D|------------------------------------------------------------------|
A|----------------0---------------2---------------------------------|
D|0-----------------------------------------------4-----------------|

D|0-----------------------------<5>--0-------------------------0-----0-----0-----0------|
A|----3-\-2-/-3---3/5-----5--------------3-\-2-/-3---3/4---2/4---4/5---5/7---7/9---9/10-|
G|--------------------------------------------------------------------------------------|
D|--------------------------------------------------------------------------------------|
A|---------------------------------------------------0-----0-----0-----0-----0-----0----|
D|5---------------0----0-----0-------5--------------------------------------------------|


D|--------------------------------------------------------------------------------------|
A|9-10-9-0-7-9-7-0-5-7-5-0-4-5-4-0-2-4-2-0----------------------------------------------|
G|-----------------------------------------2-4-2-0--------------------------------------|
D|-------------------------------------------------2-4-2-0------------------------------|
A|---------------------------------------------------------4-5--------------------------|
D|--------------------------------------------------------------------------------------|

D|---------------4----------------------------------------------------------------|
A|----------5----------------2---0---4-------------------5------------------4-----|
G|-----2-----------------------------------------4---0-----------------2----------|
D|-----------------------2-----------------2/4--------------------4---------------|
A|0------------------7-------------------9-------------------4--------------------|
D|0------------------7-------------------9-------------------4--------------------|

D|---------------------------------<12>-------------------------------------------|
A|---------------5-----------<12>-----------------------5-------------------7-----|
G|----------4--------------------------------------4-------------------6----------|
D|-----5---------------<12>-------------------5-------------------7---------------|
A|5------------------0-------------------5-------------------7--------------------|
D|5------------------0-------------------5-------------------7--------------------|

D|---------------4----------------------------------------------------------------|
A|----------5----------------2---0---4-------------------5------------------4-----|
G|-----2-----------------------------------------4---0-----------------2----------|
D|-----------------------2-----------------2/4--------------------4---------------|
A|0------------------7-------------------9-------------------4--------------------|
D|0------------------7-------------------9-------------------4--------------------|

D|---------------------------------<12>-----------------5--------------------7---0-|
A|---------------5-----------<12>------------------5-------------------7--0--------|
G|----------4---------------------------------4-------------------6----------------|
D|-----5---------------<12>--------------------------------------------------------|
A|5------------------0-------------------5-------------------7---------------------|
D|5------------------0-------------------5-------------------7---------------------|


D|-------7----12----7----4----0---------------<12>-------------------------------|
A|----<7>-------------------------------------<12>-------------------------------|
G|---<7>--------------------------------------<12>-------------------------------|
D|--<7>--------------------------------------------------------------------------|
A|-<7>---------------------------------------------------------------------------|
D|<7>----------------------------------------------------------------------------|

   * slow strum
            
Submit corrections


        Canon lessons Hard to play? Try these video lessons and learn fast Canon lessons
        
↑ Back to top | Tablatures and chords for acoustic guitar and electric guitar, ukulele, drums are parodies/interpretations of the original songs. You may use it for private study, scholarship, research or language learning purposes only