Home » T » Townes Van Zandt »

Townes Van Zandt - Nothin Tabs

Artists:  A B C D E F G H I J K L M N O P Q R S T U V W X Y Z # 

Nothin Tabs

(ver. 3) Click to play this song!
Townes Van Zandt
Am
-----------0-----|------------------|
---3b-------------|-3p1-------1-----|
-------2-------2-|-------2-------2--|
-----2-------2---|-----2-------2----|
-0-------0-------|------------------|
-----------------|------------------|

Am
-----------0-----|------------------|
---3b-------------|-3p1-------1-----|
-------2-------2-|-------2-------2--|
-----2-------2---|-----2-------2----|
-0-------0-------|------------------|
-----------------|------------------|


F                 Am
-----------------|------------------|
-1---------1-----|-1---------1------|
-------2-------2-|-------2-------2--|
-----3-------3---|-----2-------2----|
-----------------|-0-------0--------|
-1-------1-------|------------------|


Em
-----------------|------------------|
-0---------0-----|-1---------1------|
-------0-------0-|-------2-------2--|
-----2-------2---|-----2-------2----|
-----------------|-0-------0--------|
-0-------3-------|------------------|            
Submit corrections

↑ Back to top | Tablatures and chords for acoustic guitar and electric guitar, ukulele, drums are parodies/interpretations of the original songs. You may use it for private study, scholarship, research or language learning purposes only