Home » T » Townes Van Zandt »

Townes Van Zandt - Nothin Tabs

Artists:  A B C D E F G H I J K L M N O P Q R S T U V W X Y Z # 

Nothin Tabs

(ver. 2) Click to play this song!
Townes Van Zandt
Capo 4th fret

Section A
e|----------0---------------0-----|
B|----3BU---------3p1-------------|
G|------------2---------2---------|
D|----------------------------2---|
A|0-------------------------------|
E|--------------------------------|
 |x   x   x   x   x   x   x   x   |

e|----------0---------------------|
B|----3BU---------3p1-------1-----|
G|------------2---------2-----0h2-|
D|--------------------2-----------|
A|0-------------------------------|
E|----------------0-------0-------|
 |x   x   x   x   x   x   x   x   |

e|----1-----------------0---0-----|
B|1---------1-----0h1-------------|
G|------------2---------------2---|
D|--------------------2-----------|
A|----------------0---------------|
E|1-------1---------------0-------|
 |x   x   x   x   x   x   x   x   |

e|----------0-----|
B|------3BU--p0---|
G|--2-0-----------|
D|----------------|
A|----------------|
E|0---------------|
  x   x   x   x   |

e|----------0-------0-------0-----|
B|----------------------1---------|
G|----2-------2-------2-------2---|
D|--------------------------------|
A|0---------------0---------------|
E|--------0---------------0-------|
  X   x   x   x   x   x   x   x   |

Section B
e|----------0---------------0-----|
B|----3BU---------3p1-------------|
G|------------2---------2---------|
D|----------------------------2---|
A|0-------------------------------|
E|--------------------------------|
 |x   x   x   x   x   x   x   x   |

e|----------0---------------------|
B|----3BU---------3p1-------1-----|
G|------------2---------2-----0h2-|
D|--------------------2-----------|
A|0-------------------------------|
E|----------------0-------0-------|
 |x   x   x   x   x   x   x   x   |

e|----1-----------------0---0-----|
B|1---------1-----0h1-------------|
G|------------2---------------2---|
D|--------------------2-----------|
A|----------------0---------------|
E|1-------1---------------0-------|
 |x   x   x   x   x   x   x   x   |

e|----------0-----|
B|--3-------------|
G|----2-------2---|
D|0-----0---------|
A|----------------|
E|----------------|
  x   x   x   x   |

e|----------0-------0-------0-----|
B|----------------------1---------|
G|----2-------2-------2-------2---|
D|--------------------------------|
A|0---------------0---------------|
E|--------0---------------0-------|
  X   x   x   x   x   x   x   x   |

Play section A again

  X   x   x   x   x   x   x   x   |
e|----------0-------0-------0-----|
B|----------------------1---------|
G|----2-------2-------2-------2---|
D|--------------------------------|
A|0-------0-------0---------------|
E|--------------------------------|
  X   x   x   x   x   x   x   x   |

Play section B again

Section C
e|----------0---------------0-----|
B|----3BU---------3p1-------------|
G|------------2---------2---------|
D|----------------------------2---|
A|0-------------------------------|
E|--------------------------------|
 |x   x   x   x   x   x   x   x   |

e|----------0---------------------|
B|----3BU---------3p1-------1-----|
G|------------2---------2-----0h2-|
D|--------------------2-----------|
A|0-------------------------------|
E|----------------0-------0-------|
 |x   x   x   x   x   x   x   x   |

e|----1-----------------0---0-----|
B|1---------1-----0h1-------------|
G|------------2---------------2---|
D|--------------------2-----------|
A|----------------0---------------|
E|1-------1---------------0-------|
 |x   x   x   x   x   x   x   x   |

e|--0-------0-----|
B|----------------|
G|----0-------0---|
D|----------------|
A|----------------|
E|0-------3-------|
  x   x   x   x   |

e|----------0-------0-------0-----|
B|------1---------------1---------|
G|----2-------2-------2-------2---|
D|--------------------------------|
A|0---------------0---------------|
E|--------0---------------0-------|
  X   x   x   x   x   x   x   x   |

Section D
e|----------0---------------------|
B|----3BU---p1----3p1-------------|
G|------------2---------2---------|
D|--------------------------------|
A|0-------------------0-----------|
E|------------------------0---3---|
 |x   x   x   x   x   x   x   x   |

e|----------0---------------------|
B|----3BU---p1----3p1-------1-----|
G|------------2---------2-----0h2-|
D|--------------------------------|
A|0-------------------0-----------|
E|------------------------0-------|
 |x   x   x   x   x   x   x   x   |

e|----1-----------------0---0-----|
B|1---------1-----0h1-------------|
G|------------2---------------2---|
D|--------------------2-----------|
A|----------------0---------------|
E|1-------1---------------0-------|
 |x   x   x   x   x   x   x   x   |

e|----------0-----|
B|------3BU--p0---|
G|--2-0-----------|
D|----------------|
A|----------------|
E|0---------------|
  x   x   x   x   |

e|----------0-------0-------0-----|
B|----------------------1---------|
G|----2-------2-------2-------2---|
D|--------------------------------|
A|0---------------0---------------|
E|--------0---------------0-------|
  x   x   x   x   x   x   x   x   
Play section B again
Play section A again
Play section B
Play Section C

e|----------0---------------------|
B|----3BU---------3p1-------------|
G|------------2---------2---------|
D|--------------------------------|
A|0-------------------------------|
E|--------------------------------|
 |x   x   x   x   x   x   x   x   |

quite awkward to format with the little changes throughout, hope it's easy enough to 
read. the 1 bar measures are hard to get the right feeling for, make sure you hit the first 
open string as hard as possible and you should get it. brilliant track.
            
Submit corrections

↑ Back to top | Tablatures and chords for acoustic guitar and electric guitar, ukulele, drums are parodies/interpretations of the original songs. You may use it for private study, scholarship, research or language learning purposes only