» » »

Torres - Strange Hellos Tabs

Artists:  A B C D E F G H I J K L M N O P Q R S T U V W X Y Z # 

Strange Hellos Tabs

(ver. 1) Click to play this song!
Torres
 Rating:
4.3/5 (27 votes)
    Strange Hellos  lessons Tabs too difficult? Try these video lessons and learn fast
                [Intro]

E----------------------------------------------------------------------|
B----------------------------------------------------------------------|
G----------------------------------------------------------------------|
D----------------------------------------------------------------------|
A----------------------------------------------------------------------|
E--6---4---9---2--------------6---4---1---2----------------------------|x6

Heather I'm sorry that your mother.
Deceased in the brain.
Cannot recall your name.

Heather I've dreamt that I forgave,
But that only comes in waves.
I hate you all the same.

(If you want you can try muting the notes after they're played_


[Chorus]

E----------------------------------------------------------------------|
B----------------------------------------------------------------------|
G----------------------------------------------------------------------|
D--8--8--8--8--6--6--6--6--11--11--11--11-4--4--4--4-------------------|
A--8--8--8--8--6--6--6--6--11--11--11--11-4--4--4--4-------------------|
E--6--6--6--6--4--4--4--4--9---9---9---9--2--2--2--2-------------------|x2


I was all for being real
But if I don't believe then no one will
What's mine isn't really yours
But I hope you find what you're looking for


[Verse 1]

When she plays this live this part has a simple fingerpicking of E,A,D

E----------------------------------------------------------------------|
B----------------------------------------------------------------------|
G----------------------------------------------------------------------|
D--8--8--8--8--6--6--6--6--11--11--11--11-4--4--4--4-------------------|
A--8--8--8--8--6--6--6--6--11--11--11--11-4--4--4--4-------------------|
E--6--6--6--6--4--4--4--4--9---9---9---9--2--2--2--2-------------------|

E----------------------------------------------------------------------|
B----------------------------------------------------------------------|
G----------------------------------------------------------------------|
D--8--8--8--8--6--6--6--6--3--3--3--3--4--4--4--4----------------------|
A--8--8--8--8--6--6--6--6--3--3--3--3--4--4--4--4----------------------|
E--6--6--6--6--4--4--4--4--1--1--1--1--2--2--2--2----------------------|x2

Beg her, blow in her face
Toward changing, never take
But I'm with you, I deflate
I love you all the same


E----------------------------------------------------------------------|
B----------------------------------------------------------------------|
G----------------------------------------------------------------------|
D--8--8-------6--6-------11--11------4--4------------------------------|
A--8--8-------6--6-------11--11------4--4------------------------------|
E--6--6-------4--4-------9---9-------2--2------------------------------|

I love you all the same

[Chorus]

E----------------------------------------------------------------------|
B----------------------------------------------------------------------|
G----------------------------------------------------------------------|
D--8--8--8--8--6--6--6--6--11--11--11--11-4--4--4--4-------------------|
A--8--8--8--8--6--6--6--6--11--11--11--11-4--4--4--4-------------------|
E--6--6--6--6--4--4--4--4--9---9---9---9--2--2--2--2-------------------|x2

I was all for being real
But if I don't believe then no one will
What's mine isn't really yours
But I hope you find what you're looking for


[Bridge}


E----------------------------------------------------------------------|
B----------------------------------------------------------------------|
G----------------------------------------------------------------------|
D----------------------------------------------------------------------|
A----------------------------------------------------------------------|
E--6--6--6--6--6--6--6--6--6--6--6--6--6--6--6--6--6-------------------|


Strange hellos are not my bag
Better never having that


E----------------------------------------------------------------------|
B----------------------------------------------------------------------|
G----------------------------------------------------------------------|
D--8--8--8--8--6--6--6--6--11--11--11--11-4--4--4--4-------------------|
A--8--8--8--8--6--6--6--6--11--11--11--11-4--4--4--4-------------------|
E--6--6--6--6--4--4--4--4--9---9---9---9--2--2--2--2-------------------|

Strange hellos are not my bag
Better never having that


[Chorus]

E----------------------------------------------------------------------|
B----------------------------------------------------------------------|
G----------------------------------------------------------------------|
D--8--8--8--8--6--6--6--6--11--11--11--11-4--4--4--4-------------------|
A--8--8--8--8--6--6--6--6--11--11--11--11-4--4--4--4-------------------|
E--6--6--6--6--4--4--4--4--9---9---9---9--2--2--2--2-------------------|x2

I was all for being real
But if I don't believe then no one will
What's mine isn't really yours
But I hope you find what you're looking for            
Submit corrections

↑ Back to top | Tablatures and chords for acoustic guitar and electric guitar, ukulele, drums are parodies/interpretations of the original songs. You may use it for private study, scholarship, research or language learning purposes only