» » »

Torres - Strange Hellos Bass

Artists:  A B C D E F G H I J K L M N O P Q R S T U V W X Y Z # 

Strange Hellos Bass

(ver. 1) Click to play this song!
Torres
 Rating:
4.4/5 (8 votes)
    Strange Hellos  lessons Tabs too difficult? Try these video lessons and learn fast
                Standard Tunning (E, D, A, E)

Verse (Bass comes in at 0:48)

G|-----------------------------------------------------------------|
D|-----------------------------------------------------------------|
A|-2-2-2-2-2-2-2-2-0-0-0-0-0-0-0-0-5-5-5-5-5-5-5-5-----------------|
E|-------------------------------------------------3-3-3-3-3-3-3-3-|

G|-------------------------------------------------------------------------|
D|-------------------------------------------------------------------------|
A|-2-2-2-2-2-2-2-2-0-0-0-0-0-0-0-0-5-5-5-5-5-5-5-5-10-10-10-10-10-10-10-10-|
E|-------------------------------------------------------------------------|

Chorus

G|------------------------|
D|------------------------|
A|-2--2--5--5--0--0-------|
E|-------------------3--3-|

G|---------------------------|
D|-------------------5-4-2---|
A|-2--2--0--0--------------4-|
E|-------------2--2----------|

G|------------------------|
D|------------------------|
A|-2--2--5--5--0--0-------|
E|-------------------3--3-|

G|---------------------------|
D|---------------------------|
A|-2--2--0--0----------------|
E|-------------2--2--3-3-3-3-|

G|------------------------|
D|------------------------| (Play soft)
A|-2--2--5--5--0--0-------|
E|-------------------3--3-|

Verse 2

G|--------------------------------------------------------------|
D|--------------------------------------------------------------|
A|-2-2-2-2-2-2-2-2-0-0-0-0-0-0-4--5-5-5-5-5-7-5-----------------|
E|----------------------------------------------3-3-3-3-3-3-3/5-|


G|---------------------------------------------------------------------|
D|-------------------------7-7-----------------------------------------|
A|-2-2-2-2-2-2-2-2-0-0-0-0----7-4-5-5-5-5-5-5-7-7-10-10-10-10-10-9-7---|
E|-------------------------------------------------------------------9-|

Guitar Solo

G|-----------------------------------------------------------------|
D|-------------------------7-7-------------------------------------|
A|-2-2-2-2-2-2-2-2-0-0-0-0-----7-4-5-5-5-5-5-7-5-------------------|
E|-----------------------------------------------7-3-3-3-3-3-2-5-5-|

G|--------------------------------------------------------------|
D|--------------------------------------------------------------|
A|-2-2-2-2-2-2-2-2-0-0-0-0-0-0-4-4-5-5-5-5-5-7-7-10-10-10-10-10-|
E|--------------------------------------------------------------|

Bridge (Bass comes back at 2:25)

G|-----------------------------------------------------------------|
D|-----------------------------------------------------------------|
A|-2-2-2-2-2-2-2-2-2-2-2-2-2-2-2-2-0-0-0-0-0-0-0-0-0-0-0-0-0-0-0-0-|
E|-----------------------------------------------------------------|

G|-----------------------------------------------------------------|
D|-----------------------------------------------------------------|
A|-5-5-5-5-5-5-5-5-5-5-5-5-5-5-5-5---------------------------------|
E|---------------------------------3-3-3-3-3-3-3-3-3-3-3-3-3-3-3-3-|

G|-----------------------------------------------------------------|
D|-----------------------------------------------------------------|
A|-2-2-2-2-2-2-2-2-2-2-2-2-2-2-2-2-0-0-0-0-0-0-0-0-0-0-0-0-4-4-4-4-|
E|-----------------------------------------------------------------|

G|-----------------------------------------------------------------|
D|-----------------------------------------------------------------|
A|-5-5-5-5-5-5-5-5-5-5-5-5-5-5-5-5---------------------------------|
E|---------------------------------3-3-3-3-3-3-3-3-3-3-3-3-5-5-5-5-|

G|-----------------------------------------------------------------|
D|-----------------------------------------------------------------|
A|-2-2-2-2-2-2-2-2-2-2-2-2-2-2-2-2-4-4-4-4-4-4-4-4-4-4-4-4-5-5-7-7-|
E|-----------------------------------------------------------------|

G|------------------------------------------------------------------------|
D|------------------------------------------------------------------------|
A|-9-9-9-9-9-9-9-9-5-5-5-5-9-9-9-9-10-10-10-10-10-10-10-10-10-9-7-9-7---5-|
E|--------------------------------------------------------------------9---|


Verse 3

G|-----------------------------------------------------------------|
D|-----------------------------------------------------------------|
A|-2-2-2-2-2-2-2-2-0-0-0-0-0-0-4-4-5-5-5-5-5-7-5-4-----------------|
E|-------------------------------------------------3-3-3-3-3-3-5-5-|

G|---------------------------------------------------------------------|
D|-------------------------7-7-----------------------------------------|
A|-2-2-2-2-2-2-2-2-0-0-0-0----7-4-5-5-5-5-5-5-7-7-10-10-10-10-10-9-7---|
E|-------------------------------------------------------------------9-|

G|-----------------------------------------------------------------|
D|-----------------------------------------------------------------|
A|-2-2-2-2-2-2-2-2-0-0-0-0-0-0-7-4-5-5-5-5-5-5-5-5-----------------|
E|-------------------------------------------------3-3-3-3-3-3-5-5-|


G|-----------------------------------------------------------------|
D|-----------------------------------------------------------------|
A|-2-2-2-2-2-2-2-2-0-0-0-0-0-0-0-0-5-------------------------------|
E|------------------------------------------------3----------------|

Ending

G|-4--------2--------7--------4--------|
D|-------------------------------------| x4 (strum both G and A string at the same time)
A|-2--------0--------5--------2--------|
E|-------------------------------------|            
Submit corrections

↑ Back to top | Tablatures and chords for acoustic guitar and electric guitar, ukulele, drums are parodies/interpretations of the original songs. You may use it for private study, scholarship, research or language learning purposes only