» » »

Too Sorry For Apologies - Breathe Again Tabs

Artists:  A B C D E F G H I J K L M N O P Q R S T U V W X Y Z # 

Breathe Again Tabs

(ver. 3) Click to play this song!
Too Sorry For Apologies
 Rating:
4/5 (7 votes)

 Breathe Again lessons Tabs too difficult? Try these video lessons and learn fast
 
                No one was able to tab this song so i stepped in, not my favorite, but i find its a 
to U-G to actually leave that other version of the "intro" to this song. Its just 
anyways, enjoy. ; )

standard tuning (EADGBe)


INTRO
e|----------------------------------------------------|
B|----0--4---------------7----------------------------|
G|-1---------------4--6--------------4-4-4-4-4-4-4-4--|
D|-----------------------------------4-4-4-4-4-4-4-4--|
A|-----------------------------------2-2-2-2-2-2-2-2--|
E|----------------------------------------------------|


VERSE
e|----------------2-2-------------------2-2-2----|
B|-----7-7-------------------4-4--------------4--|
G|-9-9--------4-4--------------------------------|
D|-9-9--------4-4--------4-4--------6-6----------|
A|-7-7--------2-2--------4-4--------6-6----------|
E|-----------------------2-2--------4-4----------|


OTHER VERSE
e|----------------------------------------------|
B|----------------------------------------------|
G|-9-9-9----9-4-4-4----4------------------------|
D|-9-9-9----9-4-4-4----4-4-4-4----4-6-6-6-6-6---|
A|-7-7-7----7-2-2-2----2-4-4-4----4-6-6-6-6-6---|
E|-----------------------2-2-2----2-4-4-4-4-4---|


CHORUS
e|-------------------------------------------|
B|-------------------------------------------|
G|-9-9-9-9--4-4-4-4--------------------------|
D|-9-9-9-9--4-4-4-4--4-4-4-4-4-6-6-6---------|
A|-7-7-7-7--2-2-2-2--4-4-4-4-4-6-6-4---------|
E|-------------------2-2-2-2-2-4-4-4---------|
            
Submit corrections


        Breathe Again lessons Hard to play? Try these video lessons and learn fast Breathe Again lessons
        
↑ Back to top | Tablatures and chords for acoustic guitar and electric guitar, ukulele, drums are parodies/interpretations of the original songs. You may use it for private study, scholarship, research or language learning purposes only