» » »

Tool - Lost Keys Tabs

Artists:  A B C D E F G H I J K L M N O P Q R S T U V W X Y Z # 

Lost Keys Tabs

(ver. 4) Click to play this song!
Tool
 Rating:
4.4/5 (14 votes)


 Lost Keys lessons Tabs too difficult? Try these video lessons and learn fast
 
                [Intro riff]
(Starts out clean with light distortion, some reverb)                                                                            
E|------------|-------------|------------|---------------------|
B|------------|-------------|------------|---------------------|
G|------------|-------------|------------|--------------0------| 
D|---------0~~|~~~~~~~~~~0~~|~~-------0--|--------0~~~~~~~~0~~-|(x4)
A|-----0~~~~~~|~~~~~~3~~~~~-|-----0------|-----3~~~~~3~~~~~~~--|
D|-0~~~~~~~~~~|~~3~~~~~~----|-0----------|--3~~~~~~~~~~~~~~~---|
(00:30-01:30)

E|------------|----------------------|
B|------------|----------------------|
G|------------|----------------0-----|
D|---------0~~|~~~~~~~~~~0--------0--|(x3)
A|-----0~~~~~~|~~~~~~3~~~~~-3--------|
D|-0~~~~~~~~~~|~~3~~~~~~-------------|
(01:30-01:50)

E|------------|-------------|------------|---------------------|
B|------------|-------------|------------|---------------------|
G|------------|-------------|------------|--------------0------| 
D|---------0~~|~~~~~~~~~~0~~|~~-------0--|--------0~~~~~~~~0~~-|(x2)
A|-----0~~~~~~|~~~~~~3~~~~~-|-----0------|-----3~~~~~3~~~~~~~--|
D|-0~~~~~~~~~~|~~3~~~~~~----|-0----------|--3~~~~~~~~~~~~~~~---|
(01:51-02:20)

E|------------|-------------|---------------|----------------------|
B|------------|-------------|---------------|----------------------|
G|------------|-------------|-----------~2~-|---------------0------| 
D|---------0~~|~~~~~~~~~~0~~|~~------0------|--------0~~~~~~~~-0~~-|
A|-----0~~~~~~|~~~~~~3~~~~~-|----0----------|-----3~~~~~-3~~~~~~~--|
D|-0~~~~~~~~~~|~~3~~~~~~----|0--------------|--3~~~~~~~~~~~~~~~----|
(02:20-02:35)

E|------------------------------------|
B|------------------------------------|
G|----------------------------0-------| 
D|---------0~~~~~~~~--~-0~~~~----0----|
A|-----0~~~~~~~------3~~~~~3~--------~|
D|-0~~~~~~~~~~----3~~~~~~~~~----------|
(02:35-02:41) "Excuse me, Doctor..."
          Dialogue starts at about 2:38
E|------------|---|-------------------|
B|------------|---|-------------------|
G|------------|-2-|------------0------|   
D|~~--------0-|---|------0~~~~~~~-0-~-|
A|------0-----|---|---3-~~~~0~~~~~~~--|    
D|--0---------|---|3-~~~~~~~~~~~~~~---|
(02:42-02:49)   

E|--------------|---------------------|
B|--------------|---------------------|
G|---------0/2\0|--------------0------|   
D|~~-----0------|--------0~~~~~~~~0~~-|
A|----0---------|-----3~~~~~0~~~~~~~--|    
D|-0------------|--3~~~~~~~~~~~~~~~---|
(02:50-02:56)

E|------------|-------------|------------|---------------------|
B|------------|-------------|------------|---------------------|
G|------------|-------------|------------|--------------0------| 
D|---------0~~|~~~~~~~~~~0~~|~~-------0--|--------0~~~~~~~~0~~-|
A|-----0~~~~~~|~~~~~~3~~~~~-|-----0------|-----3~~~~~3~~~~~~~--|
D|-0~~~~~~~~~~|~~3~~~~~~----|-0----------|--3~~~~~~~~~~~~~~~---|
(02:57-03:10)

E|------------|-------------|---------------|----------------------|
B|------------|-------------|---------------|----------------------|
G|------------|-------------|----------0/2\0|---------------0------| 
D|---------0~~|~~~~~~~~~~0~~|~~------0------|--------0~~~~~~~~-0~~-|
A|-----0~~~~~~|~~~~~~3~~~~~-|----0----------|-----3~~~~~-3~~~~~~~--|
D|-0~~~~~~~~~~|~~3~~~~~~----|0--------------|--3~~~~~~~~~~~~~~~----|
(03:11-03:25)    "Well then, let's say hello..."

E|------------|-------------|---------------|----------------------|
B|------------|-------------|---------------|----------------------|
G|------------|-------------|-----------~2~-|---------------0------| 
D|---------0~~|~~~~~~~~~~0~~|~~------0------|--------0~~~~~~~~-0~~-|
A|-----0~~~~~~|~~~~~~3~~~~~-|----0----------|-----3~~~~~-3~~~~~~~--|
D|-0~~~~~~~~~~|~~3~~~~~~----|0--------------|--3~~~~~~~~~~~~~~~---O|
                    (03:26-03:50) Doctor Lawson - "Tell me everything..."
                               - "Alrighty then, picture this if you will" -
            
Submit corrections



        Lost Keys lessons Hard to play? Try these video lessons and learn fast Lost Keys lessons
        
↑ Back to top | Tablatures and chords for acoustic guitar and electric guitar, ukulele, drums are parodies/interpretations of the original songs. You may use it for private study, scholarship, research or language learning purposes only