» » »

Tool - Jambi Bass

Artists:  A B C D E F G H I J K L M N O P Q R S T U V W X Y Z # 

Jambi Bass

(ver. 3) Click to play this song!
Tool
 Rating:
4.3/5 (25 votes)


 Jambi lessons Tabs too difficult? Try these video lessons and learn fast
 
                [Intro]

G|---------------------------------------------------------------------------|
D|---------------------------------------------------------------------------|
A|---------------------------------------------------------------------------|
D|-3p0-0000-1p0-00-5p0-00-10p0-00(x3)-3p0-0000-1p0-00-5p0-00-10p0-0-0-0------|

[Chorus 1]

G|---------------------------------------------------------------------------|
D|---------------------------------------------------------------------------|
A|-----5---5--------8---8----------------------------------------------------|
D|-0-0---0---0--8-8---8---8--3-3-3-3/12-12--5-5-5-5/10-10--------------------|(x2)

[Wah-wah part]

G|-12-12----12----12--------12p10--------------------------------------------|
D|------12----12----12~--12------12------------------------------------------|
A|---------------------------------------------------------------------------|
D|---------------------------------------------------------------------------|(x20)

[After wah-wah]

G|---------------------------------------------------------------------------|
D|---------------------------------------------------------------------------|
A|---------------------------------------------------------------------------|
D|-0~--33553~--335533--------------------------------------------------------|(x4)

[Wah-Wah part 2]

G|-12-12----12----12--------12p10--------------------------------------------|
D|------12----12----12~--12------12------------------------------------------|
A|---------------------------------------------------------------------------|
D|---------------------------------------------------------------------------|(x3)

G|-12/14-12----12----12--------12p10-----------------------------------------|
D|---------12----12----12~--12------12---------------------------------------|
A|---------------------------------------------------------------------------|
D|---------------------------------------------------------------------------|

[Verse 2]

G|---------------------------------------------------------------------------|
D|---------------------------------------------------------------------------|
A|---------------------------------------------------------------------------|
D|-0~--33553~--335533--------------------------------------------------------|(x8)

G|---------------------------------------------------------------------------|
D|---------------------------------------------------------------------------|
A|---------------------------------------------------------------------------|
D|-/12~--33553--335533-------------------------------------------------------|(x4)

G|---------------------------------------------------------------------------|
D|---------------------------------------------------------------------------|
A|-5~------------------------------------------------------------------------|
D|-----33553~--335533--------------------------------------------------------|(x8)

[Chorus 2]

G|---------------------------------------------------------------------------|
D|---------------------------------------------------------------------------|
A|-----5---5--------8---8----------------------------------------------------|
D|-0-0---0---0--8-8---8---8--3-3-3-3/12-12--5-5-5-5/10-10--------------------|(x4)

[After Chorus 2]

G|---------------------------------------------------------------------------|
D|---------------------------------------------------------------------------|
A|---------------------------------------------------------------------------|
D|-00~-000~-000~-00000--000~-000~-00000-00000--000~-00000-00000--------------|

G|---------------------------------------------------------------------------|
D|---------------------------------------------------------------------------|
A|---------------------------------------------------------------------------|
D|-00~-000~-000~-00000--000~-000~-00000-00000--000~-00000-000012\------------|

[Bridge & Solo]

G|---------------------------------------------------------------------------|
D|--------------------0~-----------------------------------------------------|
A|--------------------5~-----------------------------------------------------|
D|-0000-0000-00-00000--------------------------------------------------------|(x20)

[The little thing after those 20]

G|---------------------------------------------------------------------------|
D|---------------------------------------------------------------------------|
A|---3---2-------------------------------------------------------------------|
D|-0---0---0-7-0-5-0-3-0-2---------------------------------------------------|

[Solo continuing]

G|---------------------------------------------------------------------------|
D|--------------------0~-----------------------------------------------------|
A|--------------------5~-----------------------------------------------------|
D|-0000-0000-00-00000--------------------------------------------------------|(x4)

[The gallops before the bass solo]

G|---------------------------------------------------------------------------|
D|----------------------0~---------------------------------------------------|
A|----------------------5~---------------------------------------------------|
D|-00-00-0000-00-000000------------------------------------------------------|(x4)

[Bass solo]

G|---5-7-------------5-------------------------------------------------------|
D|-0-----0-3h5-3h5-3---3-5-2-3-2---------------------------------------------|
A|---------------------------------------------------------------------------|
D|---------------------------------------------------------------------------|(x6)

G|---------------------------------------------------------------------------|
D|---------------------------------------------------------------------------|
A|---3-5-------------3-------------------------------------------------------|
D|-0-----0-3h5-3h5-3---3-5-2-3-2---------------------------------------------|(x8)

[Wah-wah part again]

G|-12-12----12----12--------12p10--------------------------------------------|
D|------12----12----12~--12------12------------------------------------------|
A|---------------------------------------------------------------------------|
D|---------------------------------------------------------------------------|(x6)

[Outro]

G|---------------------------------------------------------------------------|
D|---------------------------------------------------------------------------|
A|---------------------------------------------------------------------------|
D|-3p0-0000-1p0-00-5p0-00-10p0-00--------------------------------------------|(x8)

G|---------------------------------------------------------------------------|
D|---------------------------------------------------------------------------|
A|---------------------------------------------------------------------------|
D|-00-000-000-00000-00000~---------------------------------------------------|            
Submit corrections



        Jambi lessons Hard to play? Try these video lessons and learn fast Jambi lessons
        
↑ Back to top | Tablatures and chords for acoustic guitar and electric guitar, ukulele, drums are parodies/interpretations of the original songs. You may use it for private study, scholarship, research or language learning purposes only