Home » T » Tom Robinson »

Tom Robinson - 2 4 6 8 Motorway Tabs

Artists:  A B C D E F G H I J K L M N O P Q R S T U V W X Y Z # 

2 4 6 8 Motorway Tabs

(ver. 1) Click to play this song!
Tom Robinson

Intro

e|---------------------------------------------------------|
B|-2--3--2--3--2--2--3--2--3--2--2--3--2--3--2--2--3--2--3-|
G|-2--2--2--2--2--2--2--2--2--2--2--2--2--2--2--2--2--2--2-|
D|-2--4--2--4--2--2--4--2--4--2--2--4--2--4--2--2--4--2--4-|
A|---------------------------------------------------------|
E|---------------------------------------------------------|

The verse and the chorus are played the same, its just the text
that is different in the song...

Verse/Chorus

e|-------------------------2--2----------------------------|
B|-2--2--2--2--0--0--0--0--3--3--0--0--2--2--3--2--3-------|
G|-2--2--2--2--4--4--4--4--2--2--1--1--2--2--2--2--2-------|
D|-2--2--2--2--2--2--2--2--0--0--2--2--2--2--4--2--4-------|
A|-------------0--0--0--0--0--0--2--2----------------------|
E|-------------4--4--4--4--2--2--0--0----------------------|

Solo

e|--------------------------------------------------------------------|
B|-------------------5-----------2------------------------------------|
G|--6p4---6p4---4b6---6p4--2--4---4~--4p2----2--4b6-4b6-4b6--6p4------|
D|------7-----7---------------------------4---------------------------|
A|--------------------------------------------------------------------|
E|--------------------------------------------------------------------|

e|-------------------------------------------------5--7b9-7b9-7p5-7-5-|
B|---------------------5b7--5b7-5--------------5-7--5-----------------|
G|-2---2-4b6~--4b6-4-2------------6p4---4-6-4~------------------------|
D|---4--------------------------------7-------------------------------|
A|--------------------------------------------------------------------|
E|--------------------------------------------------------------------|

After the solo he plays the verse again but only one time on each chord

e|----------2---------------|
B|--2---0---3---0---2-------|
G|--2---4---2---1---2-------|  X2
D|--2---2---0---2---2-------|
A|------0---0---2-----------|
E|------4---2---0-----------|

Verse/Chorus

Solo 2, its almost like the first one but with some changes, be creative!

Verse/Chorus

Fade out/End
            
Submit corrections

↑ Back to top | Tablatures and chords for acoustic guitar and electric guitar, ukulele, drums are parodies/interpretations of the original songs. You may use it for private study, scholarship, research or language learning purposes only