Home » T » Tom Robinson »

Tom Robinson - 2 4 6 8 Motorway Bass

Artists:  A B C D E F G H I J K L M N O P Q R S T U V W X Y Z # 

2 4 6 8 Motorway Bass

(ver. 1) Click to play this song!
Tom Robinson
Intro:               [           Play This Bit x2            ]
G|-------------------|--------------------------------------------------|
D|-GUITAR  DRUM------|--------------------------------------------------|
A|--START 8 BARS-----|--------------------------------------------------|
E|----------------12\|-5-5-5-5---4-4—4-4--2-2---0-0---5-5-5-5-----------|

Verse 1:
G|--------------------------------------|
D|--------------------------------------|
A|--------------------------------------|
E|-5-5-5-5---4-4-4-4--2-2-0-0---5-5-5-5-|

G|----------------------------------------|
D|----------------------------------------|
A|----------------------------------------|
E|-5-5-5-5---4-4-4-4--2-2-0-0---5-5-5-024-|

Chorus:                     (Play This x2)
G|----------------------------------------|
D|----------------------------------------|
A|----------------------------------------|
E|-5-5-5-5---4-4-4-4--2-2-0-0---5-5-5-024-|

Repeat Verse 1 and Chorus:

First Solo:
G|------------------------------------------------------------------------|
D|------------------------------------------------------------------------|
A|------------------------------------------------------------------------|
E|-5-5-5-5--4-4-4-4--2-2-0-0--5-5-5-024-5-5-5-5--4-4-44--2-2-0-0--5-5-5-5-|

Bridge:
                    .   .                             .   .
G|------------------------------------------------------------------------|
D|------------------------------------------------------------------------|
A|-12--12--11--11---9---7---12--12---12--12--11--11---9---7---12--12------|
E|--------------------------------------------------------------------12\-|

Repeat Chorus x4

Lead in To Solo 2:             (Break)
G|------------------------------------------|
D|-----------------------------7------------|
A|------------------------------------------|
E|-5-5-5-5---5-5-5-5---5-5-5-5----------12\-|
            
Submit corrections

↑ Back to top | Tablatures and chords for acoustic guitar and electric guitar, ukulele, drums are parodies/interpretations of the original songs. You may use it for private study, scholarship, research or language learning purposes only