Home » T » Tom Petty »

Tom Petty - I WON't BACK DOWN Bass

Artists:  A B C D E F G H I J K L M N O P Q R S T U V W X Y Z # 

I WON't BACK DOWN Bass

(ver. 3) Click to play this song!
Tom Petty
Tom Petty - I Won't Back Down


Intro (fig 1x2)
Verse 1 (fig 1x2, fig 2, fig 1)
Verse 2 (fig 1x2, fig 2, fig 1, fig 3)
Chorus
Verse 3
Chorus 2
Solo
Final Chorus
Fig 1
|---------------0-|-0-0-0-0-0-0-0-0-|
|-2-2-2-2-0-0-0---|-----------------|
|-----------------|-----------------|
|-----------------|-----------------|

Fig 2
|-----------------|-----------------|
|-2-2-2-2-0-0-0-0-|-----------------|
|-----------------|-3-3-3-3-3-3-3-3-|
|-----------------|-----------------|

Fig 3
|---------------0-|-0-0-0-0-5-0-r-5-|
|-2-2-2-2-0-0-0---|-----------------|
|-----------------|-----------------|
|-----------------|-----------------|

Chorus
|-5-5-5-5-5-0---7-|-r-7-7-7-7-0-t-5-|-5-5-5-5-5-0---7-|-r-7-7-7-7-7-7-7-|
|*------------r---|----------------*|-------------r---|-----------------|
|*----------------|----------------*|-----------------|-----------------|
|-----------------|-----------------|-----------------|-----------------|

|---------------0-|-0-0-0-0-0-0-0-0-|---------------0-|-0-0-0-0-0-0-0-0-|
|-2-2-2-2-0-0-0---|-----------------|-2-2-2-2-0-0-0---|-----------------|
|-----------------|-----------------|-----------------|-----------------|
|-----------------|-----------------|-----------------|-----------------|

Final Chorus
|-5-5-5-5-5-0---7-|-r-7-7-7-7-0-t-5-|-5-5-5-5-5-0---7-|-r-7-7-7-7-7-7-7-|
|*------------r---|----------------*|-------------r---|-----------------|
|*----------------|----------------*|-----------------|-----------------|
|-----------------|-----------------|-----------------|-----------------|

|---------------0-|-0-0-0-0-5-0-r-5-|
|-2-2-2-2-0-0-0---|-----------------|
|-----------------|-----------------|
|-----------------|-----------------|

|-5-5-5-5-5-0---7-|-r-7-7-7-7-0-t-5-|-5-5-5-5-5-0---7-|-r-7-7-7-7-7-7-7-|
|*------------r---|----------------*|-------------r---|-----------------|
|*----------------|----------------*|-----------------|-----------------|
|-----------------|-----------------|-----------------|-----------------|

|----------------0-|-0-0-0-0-0-0-0-0-|---------------0-|-w-|
|*-2-2-2-2-0-0-0--*|-----------------|-2-2-2-2-0-0-0---|---|
|*----------------*|-----------------|-----------------|---|
|------------------|-----------------|-----------------|---|


Intro (fig 1x2)
Verse 1 (fig 1x2, fig 2, fig 1)
Well I, won't back down
no I won't back down
You can stand me up at the gates of hell
But I won't back down

Verse 2 (fig 1x2, fig 2, fig 1, fig 3)
Gonna, stand my ground
won't be turned around
And I'll keep this world from dragging me down
Gonna stand my ground and I won't back down

Chorus
(I won't back)
Hey baby, there ain't no easy way out
(I won't back)
hey I, will stand my ground and I won't back down

Verse 3
Well I, know what's right
I got just one life
In a world that keeps on pushin' me around
But I'll, stand my ground and I won't back down

Chorus 2
(I won't back)
Hey baby, there ain't no easy way out
(I won't back)
hey I, will stand my ground 
(I won't back down)
and I won't back down

Solo
Chorus
(I won't back)
Hey baby, there ain't no easy way out
(I won't back)
Hey I, won't back down
(I won't back)
Hey baby, there ain't no easy way out
(I won't back)
hey I, will stand my ground 
(I won't back down)
and I won't back down
(I won't back down)
No I won't back down
            
Submit corrections

↑ Back to top | Tablatures and chords for acoustic guitar and electric guitar, ukulele, drums are parodies/interpretations of the original songs. You may use it for private study, scholarship, research or language learning purposes only