» » »

Tom Petty - Break Down Tabs

Artists:  A B C D E F G H I J K L M N O P Q R S T U V W X Y Z # 

Break Down Tabs

(ver. 1) Click to play this song!
Tom Petty
 Rating:
3.6/5 (9 votes)


 Break Down lessons Tabs too difficult? Try these video lessons and learn fast
 
                -----------------------------------------------------------------------
               BREAKDOWN - Tom Petty and the Heartbreakers
-----------------------------------------------------------------------

Tuning: Standard

Opening lick
E|--8----------------------------------------------------|
B|----10p8---8-10~~~p8-----------------------------------| 
G|---------9---------------------------------------------| 
D|-------------------------------------------------------| 
A|-------------------------------------------------------| 
E|-------------------------------------------------------| 

Main Riff
E|-------------------------------5-----------------------|
B|--10/8\10----------------------5-8---5---5-------------| 
G|----------9-9/7\9---------------------------7----------| 
D|------------------7-7/5\7------------------------------| 
A|--------------------------7----------------------------| 
E|-------------------------------------------------------| 

E|-------------------------------5-----5-----------------|
B|--10/8\10----------------------5-8------5--------------| 
G|----------9-9/7\9-------------------------7----7p5-----| 
D|------------------7-7/5\7-------------------------h7---| 
A|--------------------------7----------------------------| 
E|-------------------------------------------------------| 

Verse: Am7 G

Chorus Am7 G F G

Middle Lick
E|-------------------------------------------------------|
B|-------------------------------------------------------| 
G|------5-7b-5-7-----------------------------------------| 
D|--5h7----------7---------------------------------------| 
A|-------------------------------------------------------| 
E|-------------------------------------------------------| 


Solo
E|-3/5---5-5-5-5-5-5-5-5-5-5-----5------0-------0----0---|
B|-3/5-5---5-5-5-5-5-5-5---5-5/8---8/10---10/13---13---13|
G|-------------------------------------------------------| 
D|-------------------------------------------------------| 
A|-------------------------------------------------------| 
E|-------------------------------------------------------| 
            
Submit corrections



        Break Down lessons Hard to play? Try these video lessons and learn fast Break Down lessons
        
↑ Back to top | Tablatures and chords for acoustic guitar and electric guitar, ukulele, drums are parodies/interpretations of the original songs. You may use it for private study, scholarship, research or language learning purposes only