» » »

Tokyo Police Club - Hands Reversed Tabs

Artists:  A B C D E F G H I J K L M N O P Q R S T U V W X Y Z # 

Hands Reversed Tabs

(ver. 1) Click to play this song!
Tokyo Police Club
 Rating:
4.5/5 (8 votes)


 Hands Reversed lessons Tabs too difficult? Try these video lessons and learn fast
 
                VERSE 1:
e-----------------------------------------------------------------------|
B--3----3-----3---3------7---7------7---7------5---5------3---3---------|
G-----2-----2---2-----2----6-----6----6-----6----4-----4----4----4------|
D-----------------------------------------------------------------------|
A-----------------------------------------------------------------------|
E--2------2---2-----2----5-----5----5-----5----3-----3----3-----3-------|

--------------------------|
-7---7-------7--%7--------|
---7-----7-----7-----7----| x3
--------------------------|
--------------------------|
-5-----5-----7-----5------|

%Lyrics start on first time (you gotta come into my kitchen...)

CHORUS
(made of paper and glue...)
e-------------------------------------------------------------------|
B--3----3-----3---3------7---7------7---7------5---5------3---3-----|
G-----2-----2---2-----2----6-----6----6-----6----4-----4----4----4--|
D-------------------------------------------------------------------|
A-------------------------------------------------------------------|
E--2------2---2-----2----5-----5----5-----5----3-----3----3-----3---|

--------------------------------------------------------------------|
-7---7---------------3----3------3----3-----7----7------7---7-------|
---7-----7--------------2-----2-----2----2-----6-----6----6-----6---|
--------------------------------------------------------------------|
--------------------------------------------------------------------|
-5-----5-----7---5---2------2----2------2---5------5----5-----5-----|

e----------------------------------------------|
B--5---5-----5---5------3---3------3---3-------|
G----6-----6---6-----6----4-----4----4-----4---| x3 (only this section)
D----------------------------------------------|
A----------------------------------------------|
E--5-----5---5-----5----3-----3----3-----3-----|


BRIDGE
e----------------------------------------------------------------------------|
B--10----10---------3/5----5-------7-----7-------7-----7-------10------10----|
G-----11-------11-------6------6------7------7------7------7-------11--------|
D----------------------------------------------------------------------------|
A----------------------------------------------------------------------------|
E--10-------10------3/5------5-----5-------5-----5-------5-----10---------10-|

---------------------------------------------------------------------------|
------10----10--------8-----8-----7---7-------10----10-------12----10------|
--11-----11-------11-----9-----9----8-----8------11------11-----11-------11|
---------------------------------------------------------------------------|
---------------------------------------------------------------------------|
------10-------10-----7------7----7-----7-----10-------10----10--------10--|

VERSE 2:
(watching your weekends...)
e-----------------------------------------------------------------------|
B--3----3-----3---3------7---7------7---7------5---5------3---3---------|
G-----2-----2---2-----2----6-----6----6-----6----6-----6----4----4------|
D-----------------------------------------------------------------------|
A-----------------------------------------------------------------------|
E--2------2---2-----2----5-----5----5-----5----5-----5----3-----3-------|

--------------------------|
-7---7-------7---7--------|
---7-----7-----7-----7----|
--------------------------|
--------------------------|
-5-----5-----7-----5------|

(your only souvenirs...)
e--------------------------------------------------------------------------|
B--3----3-----3---3------7---7------7---7------5---5------3---3-----7-7-8-8|
G-----2-----2---2-----2----6-----6----6-----6----4-----4----4----4--7-7-7-7|
D--------------------------------------------------------------------------|
A--------------------------------------------------------------------------|
E--2------2---2-----2----5-----5----5-----5----3-----3----3-----4----------|

repeat chorus, bridge, chorus again, then:

OUTRO
e-------------------------------------|
B--10----10---------3/5----5-------7--|
G-----11-------11-------6------6---7--|
D----------------------------------0--|
A----------------------------------0--|
E--10-------10------3/5------5-----5--|

Overall song progression:
Verse 1, Chorus, Bridge, Verse 2, Chorus, Bridge, Chorus, Outro
            
Submit corrections



        Hands Reversed lessons Hard to play? Try these video lessons and learn fast Hands Reversed lessons
        
↑ Back to top | Tablatures and chords for acoustic guitar and electric guitar, ukulele, drums are parodies/interpretations of the original songs. You may use it for private study, scholarship, research or language learning purposes only