» » »

Tobymac - Gone Tabs

Artists:  A B C D E F G H I J K L M N O P Q R S T U V W X Y Z # 

Gone Tabs

(ver. 2) Click to play this song!
Tobymac
 Rating:
4.2/5 (5 votes)

 Gone lessons Tabs too difficult? Try these video lessons and learn fast
 
                This song is pretty easy, but is very fun to play around with when you play with it a 
I will write out the song with some of the stuff I figured out that makes it sound more 
how it is played on the Renovating Diverse City CD.

Most of the song is played with this simple set of power chords...
e-------------------|
B-------------------|
G----------8--------|
D-10---6-8-8---8-6--|
A-10---6-8-6---8-6--|
E-8----4-6-----6-4--|
play it double time to pump the song up a bit, see below to slow it down.

intro
e-----------------------------------------------|
B-----------------------------------------------|
G-----------------------------------------8---8-|
D---------------------------------------8---8-8-|
A---------6----------6---8---10----12-6-------6-|
E-8---4-6-----6-4--4---6---8----10--------------|

Verse 1
e-----------------| x2
B-----------------|
G-----------------|
D-----------------|
A---------6-------|
E-8---4-6-----6-4-|

e------------------------------------|
B------------------------------------|
G------------------------8-----------|
D------10--------------8---8---------|
A---10----10---6---8-6---------8---6-|
E-8----------4---6-----------6---4---|

e------------------------------|
B------------------------------|
G------------------------8---8-|
D----------------------8---8-8-|
A---6---8---10----12-6-------6-|
E-4---6---8----10--------------|

Chorus
e-------------------| x2
B-------------------|
G-----------8-8-----|
D-10-10-6-8-8-8-8-6-|
A-10-10-6-8-6-6-8-6-|
E-8--8--4-6-----6-4-|

e------------------------------------|
B------------------------------------|
G------------------------8-----------|
D------10--------------8---8---------|
A---10----10---6---8-6---------8---6-|
E-8----------4---6-----------6---4---|

e------------------------------|
B------------------------------|
G------------------------8---8-|
D------10--------------8---8-8-|
A---10----10---6---8-6-------6-|
E-8----------4---6-------------|

Verse 2
e-----------------------------------------------------| x3
B-----------------------------------------------------|
G-------------------------------------8-8-8-8---------|
D-----------------10-10-10-10-6-6-8-8-8-8-8-8-8-8-6-6-|
A---------6-------10-10-10-10-6-6-8-8-6-6-6-6-8-8-6-6-|
E-8---4-6-----6-4-8--8--8--8--4-4-6-6---------6-6-4-4-|

e------------------------------|
B------------------------------|
G------------------------8---8-|
D----------------------8---8-8-|
A---6---8---10----12-6-------6-|
E-4---6---8----10--------------|

*Chorus

Solo (Renovating dosen't have this but it has a gap that this fits right here)
e-13-9------------13-9---14-13-9-11-13-9----------13-14-13----13---13-|
B------9-7-9-6-9-------9----------------9-7-9-6-9----------14---14----|
G---------------------------------------------------------------------|
D---------------------------------------------------------------------|
A---------------------------------------------------------------------|
E---------------------------------------------------------------------|

*Verse 1

*Chorus

For the ending I like to change it a lot. Its four lines of the same basic music. The 
can fit here as well if you like. This song is very fun to monkey around with and find 
ways to redo it. Have fun!!
            
Submit corrections


        Gone lessons Hard to play? Try these video lessons and learn fast Gone lessons
        
↑ Back to top | Tablatures and chords for acoustic guitar and electric guitar, ukulele, drums are parodies/interpretations of the original songs. You may use it for private study, scholarship, research or language learning purposes only