» » »

Tobymac - Catch A Fire Tabs

Artists:  A B C D E F G H I J K L M N O P Q R S T U V W X Y Z # 

Catch A Fire Tabs

(ver. 2) Click to play this song!
Tobymac
 Rating:
4/5 (4 votes)

 Catch A Fire lessons Tabs too difficult? Try these video lessons and learn fast
 
                ok the intro for this is on piano, but for guitar this is it.
B5= E:--------|
    B:--------|
    G:-4------|
    D:-4------|
    A:-2------|
    E:--------|

B5(3fr)= E:--------|
         B:--------|
         G:-5------|
         D:-5------|
         A:-3------|
         E:--------|

B5(5fr)= E:--------|
         B:--------|
         G:-7------|
         D:-7------|
         A:-5------|
         E:--------|

B5 B5 B5 B5 B5 B5(3fr) B5(5fr) B5(3fr)                (X2)
that is basicly it,

here is the rest of the song.

E:-----------------------------------------------------------------------|
B:-----------------------------------------------------------------------|
G:--4---4---------4---4-----------4----4---4----7----5---5---4-4-5---7---|
D:--4---4---4-----4---4---4--4----4----4---4----7----5---5---4-4-5---7---|
A:--2---2---4-----2---2---4--4----2----2---2----5----3---3---2-2-3---5---|
E:----------2-------------2--2-------------------------------------------|

   Ooh-wah-ooh,  dum dum dit-ty, Here come that boy from the capital city.

E:-----------------------------------------------------------------------|
B:-----------------------------------------------------------------------|
G:--4---4---------4---4-----------4----4---4----7------------------------|
D:--4---4---4-----4---4---4--4----4----4---4----7------------------------|
A:--2---2---4-----2---2---4--4----2----2---2----5------------------------|
E:----------2-------------2--2-------------------------------------------|

   Ooh-wah-ooh,  dum dum dit-ty, Here come that boy!


(just strum to the beat of the song, as you see fit)
Verse 1:
B5
Slackin' off like a bum, I'm feelin' ho hum.
I'm feelin' luck warm like the water in my tub.
Started out and we was hot, looked up and now we're not.
We had the fire like we was boilin' in a pot.

B5                                                    B5-(3fr)  (5fr)  (3fr)
Whoop-si-dai-sy, whoop-si-dai-sy, whoop-si-dai-sy. Come we gonna  catch that.

Verse 2:
B5
...FIre, I'm feenin' for a flicker,
Then we'll fan the flame up into something bigger.
Started out and we was hot, looked up and now we're not.
We gonna catch a fire, catch a fire for God.
                                                     B5-   (3fr) (5fr) (3fr)
Whoop-si-dai-sy, whoop-si-dai-sy, whoop-si-dai-sy. Come we gonna catch that.
                                                    B5-    (3fr) (5fr) (3fr)
Whoop-si-dai-sy, call me cra-zy, whoop-si-dai-sy. Come we gonna catch that.

Chorus:
B5               B5(3fr)        B5   E5      B5(5fr)   E5
(fire!)   Tak-in'  it      from warm to hot.
B5               B5(3fr)        B5   E5      B5(5fr)   E5
(fire!)   Gon-na  give      it  all  we got.
B5                   B5(3fr) B5     E5   B5(5fr) E5
(fire!)  Whoop-si-dai - sy,      call me cra  -  zy,
    B5(5fr)  E5           B5(3fr) B5(5fr) B5(3fr)
Whoop-si-dai-sy. Come we  gonna   catch    that.
B5
(fire!)  M   O   C,  what-cha got for me?    Yo, what-cha got for me?

Verse 3:
B5
Spark to a flame, I'm flippin' up my game.
I caught the fire and I'll never be the same.
So unexplanable I can't contain it,son,
And my retainin' it would only be a shame,
So let me hear you say...

( 'whoopsi-daisy' part X1)

Verse 4:
B5
...heat, like the Kingston concrete.
There aint no stoppin' the fire.
We'e straight brakin' ground.
There aint no coolin' this thing down.
We burnin' up keepin' it krunk as we know how.
Hear me now, people.

that is about it, hope this helps.
God bless
            
Submit corrections


        Catch A Fire lessons Hard to play? Try these video lessons and learn fast Catch A Fire lessons
        
↑ Back to top | Tablatures and chords for acoustic guitar and electric guitar, ukulele, drums are parodies/interpretations of the original songs. You may use it for private study, scholarship, research or language learning purposes only