Home » T » Timoria »

Timoria - Sole Spento Bass

Artists:  A B C D E F G H I J K L M N O P Q R S T U V W X Y Z # 

Sole Spento Bass

(ver. 1) Click to play this song!
Timoria
Timoria - Sole spento

 Il basso entra nella seconda strofa

("Quando la vita sembra...") 

|-------|-------|-------|-------|
|-------|-------|-------|-------|
|-------|-------|------7|-------|
|---0---|---5---|---0---|---5---|


|-------|-------|-------|-------|-------|-----------------|
|-------|-------|------2|-------|-------|-----------------|
|---3---|---5---|-------|---3---|---7---|-3-3-3-3-5-5-5-5-|
|-------|-------|---0---|-------|-------|-----------------|

 ===> Ritornello

("Finchè arriverà il mio...")

|------------------|-----------------|-----------------|-----------------|
|------------------|-----------------|-----------------|-----------------|
|--7-7-7-7---------|-----------------|-3-3-3-3-3-3-3-3-|-5-5-5-5-6-6-6-6-|
|----------7-7-7-7-|-8-8-8-8-5-5-5-5-|-----------------|-----------------|


("col pensiero tu...")                                                                             
|------------------|-----------------|-----------------|-----------------|
|------------------|-----------------|-----------------|-----------------|
|--7-7-7-7---------|-----------------|-3-3-3-3-3-3-3-3-|-3-3-3-3-3-3-3-3-|
|----------7-7-7-7-|-8-8-8-8-5-5-5-5-|-----------------|-----------------|

|------------------|-----------------|
|------------------|-----------------|
|--3-3-3-3-3-3-3-3-|-3-3-3-3-3-3-3-3-|
|------------------|-----------------|

("...con me")

|-----------|---------------|-----------|---------------|
|-----------|---------------|-----------|---------------|
|----------7|-----5-7-5-7-7-|----------7|-----5-7-5-7-7-|
|--0--0-0---|--5------------|--0--0-0---|--5------------|

("Quando sei condannato...")

----------------|---------------|-----------|---------------|
----------------|---------------|-----------|---------------|
----------7-----|-----5-7-5-7-7-|----------7|-----5-7-5-7-7-|
--0--0-0-----0h3|--5------------|--0--0-0---|--5------------|    
                                                                          
---------|-----------|---------|---------|---------|-----------------|
---------|-----------|--------2|---------|---------|-----------------|
--3--3-3-|--5-5--5-5-|---------|-3--3-3--|-7--7-7--|-3-3-3-3-5-5-5-5-|
---------|-----------|---0-0-0-|---------|---------|-----------------|

 
 ===> Ritornello

("Finchè arriverà il mio...")

|------------------|-----------------|-----------------|-----------------|
|------------------|-----------------|-----------------|-----------------|
|--7-7-7-7---------|-----------------|-3-3-3-3-3-3-3-3-|-5-5-5-5-6-6-6-6-|
|----------7-7-7-7-|-8-8-8-8-5-5-5-5-|-----------------|-----------------|


("col pensiero tu...")                                                                             
|------------------|-----------------|-----------------|-----------------|
|------------------|-----------------|-----------------|-----------------|
|--7-7-7-7---------|-----------------|-3-3-3-3-3-3-3-3-|-3-3-3-3-3-3-3-3-|
|----------7-7-7-7-|-8-8-8-8-5-5-5-5-|-----------------|-----------------|

|------------------|-----------------|
|------------------|-----------------|
|--3-3-3-3-3-3-3-3-|-3-3-3-3-3-3-3-3-|
|------------------|-----------------|


(Oh, Oh, Oh...)

|-----------|---------------|-----------|---------------|
|-----------|---------------|-----------|---------------|
|----------7|-----5-7-5-7-7-|----------7|---------------|
|--0--0-0---|--5------------|--0--0-0---|--5--3-2-3-2-0-|

|-----------|---------------|-----------|---------------|
|-----------|---------------|-----------|---------------|
|----------7|-----5-7-5-7-7-|----------7|---------------|
|--0--0-0---|--5------------|--0--0-0---|--5--3-2-3-2-0-|

|----------------|---------------|-----------|---------------|
|----------------|---------------|-----------|---------------|
|----------7-----|-----5-7-5-7-7-|----------7|-----5-7-5-7-7-|
|--0--0-0-----0h3|--5------------|--0--0-0---|--5------------|

("qui aspetterò....")

|---------------|------------|-----------|------------------|
|---------------|------------|-----------|------------------|
|---------------|---3--3-3---|-----------|-3-3-3-3-5-5-5-5--|
|---0---0-0-----|------------|--0---0-0--|------------------|

 
 ===> Ritornello

("Finchè arriverà il mio...")

|------------------|-----------------|-----------------|-----------------|
|------------------|-----------------|-----------------|-----------------|
|--7-7-7-7---------|-----------------|-3-3-3-3-3-3-3-3-|-5-5-5-5-6-6-6-6-|
|----------7-7-7-7-|-8-8-8-8-5-5-5-5-|-----------------|-----------------|


("col pensiero tu...")                                                                             
|------------------|-----------------|-----------------|-----------------|
|------------------|-----------------|-----------------|-----------------|
|--7-7-7-7---------|-----------------|-3-3-3-3-3-3-3-3-|-3-3-3-3-3-3-3-3-|
|----------7-7-7-7-|-8-8-8-8-5-5-5-5-|-----------------|-----------------|

|------------------|-----------------|
|------------------|-----------------|
|--3-3-3-3-3-3-3-3-|-3-3-3-3-3-3-3-3-|
|------------------|-----------------|
 

°°°°°°°°°°°°°°°°°°°°°°°°°°°°°°°°°°°°°°°°°°°°°°°°°
°°°°°°°°°°°°°°°°°°°°°°°°°°°°°°°°°°°°°°°°°°°°°°°°°
            
Submit corrections

↑ Back to top | Tablatures and chords for acoustic guitar and electric guitar, ukulele, drums are parodies/interpretations of the original songs. You may use it for private study, scholarship, research or language learning purposes only