» » »

Tim Mcgraw - Over And Over (with Nelly) Tabs

Artists:  A B C D E F G H I J K L M N O P Q R S T U V W X Y Z # 

Over And Over (with Nelly) Tabs

(ver. 1) Click to play this song!
Tim Mcgraw
 Rating:
4/5 (4 votes)

 Over And Over (with Nelly) lessons Tabs too difficult? Try these video lessons and learn fast
 
                
Here is a tab for the intro (and this riff is played
throughout the song too)

h=hammer-on
p=pull-off

   [G]
E---------------------------------------
B---------------------------------------
G---------------------------------------
D-------4h5--5p4----------4h5--5p4------
A-----5----------5------5----------5----
E---3-----------------3-----------------
  
  [Em]
E-------------------------------------
B-------------------------------------
G-------------------------------------
D-------5p4---4-------5p4---4---------
A-----5-----5-------5-----5-----------
E---0-------------0-------------------
            
Submit corrections


        Over And Over (with Nelly) lessons Hard to play? Try these video lessons and learn fast Over And Over (with Nelly) lessons
        
↑ Back to top | Tablatures and chords for acoustic guitar and electric guitar, ukulele, drums are parodies/interpretations of the original songs. You may use it for private study, scholarship, research or language learning purposes only