» » »

Tim Mcgraw - Over And Over Again (ft. Nelly) Tabs

Artists:  A B C D E F G H I J K L M N O P Q R S T U V W X Y Z # 

Over And Over Again (ft. Nelly) Tabs

(ver. 1) Click to play this song!
Tim Mcgraw
 Rating:
4/5 (4 votes)

 Over And Over Again (ft. Nelly) lessons Tabs too difficult? Try these video lessons and learn fast
 
                

Standard Tuning.

*=harmonic
h=hammer on
p=pull off
b=bend

*  Okay, you can either learn the little riff and play it all the way through, 
or play the riff then start playing chords during the lyrics, or just start off 
at the chords and forget about the riff, either way it sounds like the song I 


Oh yea, for those of you who don't know, that * by the notes is a harmonic.  To 
play this (which im not wonderful at by any means) you very lightly just touch 
your finger directly on top of the fret you want to play with your left hand, 
then pluck the chord with your right.  This should give you a higher than 
normal ding sound.  This is a harmonic, or at least my version.  





Main Riff (Verses and Chorus)

1st Guitar
e|---------------------------------------------------------
B|---------------------------------------------------------
G|--------------------------------------------------------
D|-----------4h5p4---0------------4h5p4---0---------------
A|-------5--------------------5----------------------------
E|---3--------------------3--------------------------------

|----------------------------------------------------------
|----------------------------------------------------------
|----------------------5*--------------------5*------------
|------------5p4-4p0-4-------------5p4-4p0-4---------------
|--------5---------------------5---------------------------
|----0--------------------0--------------------------------


            
Submit corrections


        Over And Over Again (ft. Nelly) lessons Hard to play? Try these video lessons and learn fast Over And Over Again (ft. Nelly) lessons
        
↑ Back to top | Tablatures and chords for acoustic guitar and electric guitar, ukulele, drums are parodies/interpretations of the original songs. You may use it for private study, scholarship, research or language learning purposes only