» » »

Tim Mcgraw - My Next Thirty Years Tabs

Artists:  A B C D E F G H I J K L M N O P Q R S T U V W X Y Z # 

My Next Thirty Years Tabs

(ver. 1) Click to play this song!
Tim Mcgraw
 Rating:
4/5 (4 votes)

 My Next Thirty Years lessons Tabs too difficult? Try these video lessons and learn fast
 
                E-----13-12------------------------------------------------------------------
B-----------13-11-10-11b13----11-10------------------------------------------
G------------------------------------12-10-9---------------------------------
D--------------------------------------------12-10-8----8-10-8-7-------------
A ---------------------------------------------------------------8-8---------
E----------------------------------------------------------------------------

E----5---6---5---6---5---8---6---5----13--15b16b15--13-13--------------------
B----6---6---6---6---6---8---6---6-------------------------------------------
G----------------------------------------------------------------------------
D----------------------------------------------------------------------------
A----------------------------------------------------------------------------
E----------------------------------------------------------------------------
            
Submit corrections


        My Next Thirty Years lessons Hard to play? Try these video lessons and learn fast My Next Thirty Years lessons
        
↑ Back to top | Tablatures and chords for acoustic guitar and electric guitar, ukulele, drums are parodies/interpretations of the original songs. You may use it for private study, scholarship, research or language learning purposes only