» » »

Tim Mcgraw - My Best Friend Tabs

Artists:  A B C D E F G H I J K L M N O P Q R S T U V W X Y Z # 

My Best Friend Tabs

(ver. 1) Click to play this song!
Tim Mcgraw
 Rating:
3.6/5 (5 votes)

 My Best Friend lessons Tabs too difficult? Try these video lessons and learn fast
 
                

Props to Jeremy for putting this song out there, but I wanted to add the tab.
I also used a capo because I thought it sounds better and it's not as awkward 
for me to play. I'm all about easy.

Capo II


Intro Riff 
* G G/F# G/F C/E C
|---------------|---------------------------------------
|-3-------------|-----3-------3-------3------1--------1-
|-2p0-----------|-----0-------0-------0------0--------0-
|------2p0------|-----0-------0-------0------2--------2-
|-----------2p0-|----------------------------3--3-3---3-
|---------------|-3-3-------2-2------1-1-----0-0--------

G/B D Dsus D Dsus2
-------------2-----3-----2----0--------|
-----0-------3-----3-----3----3-----3--|
-----0-------2-----2-----2----2--------|
-----0-------0-----0-----0----0--------|
---------------------------------------|

(Intro riff from * can be played for the verses or just the chords)

G G/F# G/F C
I never had no one I could count on
G/B D Dsus D
I've been let down so many times
G G/F# G/F C 
I was tired of hurtin',so tired of searchin'
G/B D
'Til you walked into my life

C G 
It was a feelin' I'd never known
Am
and for the first time
C D (strum once)
I didn't feel alone

Chorus Am ... 
|-----------------------|
|-----3-------3---------|
|-----0-------0---------|
|-----0-------0---------|
|-----------------------|
|-3-3-----2-2-----------|

G G/F# Am
You're mo---re than a lover
G/B Am
And there could never be another
G/B D
To make me feel the way you do
G G/F# Am
Oh, we just get closer
G/B Am
I fall in love all over
G/B D
Every time I look at you

D
I don't know were I'd be
G
Without you here with me
Am G/B C N.C.
Life with you makes perfect sense
*
You're my best friend

(At * start intro from *)

You stand by me and believe in me
Like nobody ever has
When my world goes crazy
You're right there to save me
You make me see how much I have

And I still tremble when we touch
And, Oh, the look in your eyes
When we make love...

Chorus


G 320033 Am X02210
G/B X20033 D XX0232
G/F# 2X0033 Dsus XX0233
G/F 1X0033 Dsus2 XX0230
C X32010 C/E 032010 
            
Submit corrections


        My Best Friend lessons Hard to play? Try these video lessons and learn fast My Best Friend lessons
        
↑ Back to top | Tablatures and chords for acoustic guitar and electric guitar, ukulele, drums are parodies/interpretations of the original songs. You may use it for private study, scholarship, research or language learning purposes only