» » »

Tim Mcgraw - Live Like You Were Dying (killer) 3 Guitars_ Tabs

Artists:  A B C D E F G H I J K L M N O P Q R S T U V W X Y Z # 

Live Like You Were Dying (killer) 3 Guitars_ Tabs

(ver. 1) Click to play this song!
Tim Mcgraw
 Rating:
4/5 (4 votes)

 Live Like You Were Dying (killer) 3 Guitars_ lessons Tabs too difficult? Try these video lessons and learn fast
 
                #------------------------------------------------------------------------------##

                            LIVE LIKE YOU WERE DYING
                            As recorded by Tim McGraw


Gtr I (E A D G B E) - 'Acoustic'
Gtr II (E A D G B E) - 'Clean Elec.'
Gtr III (E A D G B E) - 'Elec. W/Light Dist.'

  Moderatley Slow Q=80
  C          Dadd4      C/E        D/F#       Cadd2
 4/4
  Gtr II
  W          W          W          W          E E E E +E  S S E E
|----------|----------|-0--------|-2--------|-------0-(0)----------|
|-1--------|-3--------|-1--------|-3--------|-----3----------------|
|-0--------|-0--------|-0--------|-2--------|---0-------------0----|
|-2--------|-4--------|-2--------|-4--------|---2---------0h2---2--|
|-3--------|-5--------|----------|----------|-3--------------------|
|----------|----------|----------|----------|----------------------|
|
| Gtr I
|                                             E E E E +E  S S E E
|----------|----------|----------|----------|-------0-(0)----------|
|----------|----------|----------|----------|-----3----------------|
|----------|----------|----------|----------|---0-------------0----|
|----------|----------|----------|----------|---2---------0h2---2--|
|----------|----------|----------|----------|-3--------------------|
|----------|----------|----------|----------|----------------------|


  Dadd2              Cadd2/E            Dadd2/F#         G5
  E E E E +E  E Q    E E E E +E  E Q    E E E  E  +E     Q  E. S E E Q
|-------0-(0)------|-------0-(0)------|--------0--(0)-||-3--3--3-3-3-3--|
|-----3------------|------------------|-------10-(10)-||-3--3--3-3-3-3--|
|---2--------------|-----7------------|-----7---------||-0--0--0-0-0-0--|
|---4---------4----|---5---------5----|---7-----------||-0--0--0-0-0-0--|
|-5-------------5--|-7-------------7--|-9-------------||-x--x--x-x-x-x--|
|------------------|------------------|---------------||-3--3--3-3-3-3--|
|
| E E E E +E  E Q    E E E E +E  E Q    E E E  E  +E     Q  E. S E E Q
|-------0-(0)------|-------0-(0)------|--------0--(0)-||-3--3--3-3-3-3--|
|-----3------------|------------------|-------10-(10)-||-3--3--3-3-3-3--|
|---2--------------|-----7------------|-----7---------||-0--0--0-0-0-0--|
|---4---------4----|---5---------5----|---7-----------||-0--0--0-0-0-0--|
|-5-------------5--|-7-------------7--|-9-------------||-x--x--x-x-x-x--|
|------------------|------------------|---------------||-3--3--3-3-3-3--|


  Cadd2                 Em        D
  Q  E. S +E  E E S S   H
|-3--3--3-(3)-3-3-3-3-|-0----------------|------------------------|
|-3--3--3-(3)-3-3-3-3-|-0----------------|------------------------|
|-0--0--0-(0)-0-0-0-0-|-0----------------|------------------------|
|-2--2--2-(2)-2-2-2-2-|-2----------------|------------------------|
|-3--3--3-(3)-3-3-3-3-|-2----------------|------------------------|
|---------------------|-0----------------|------------------------|
|
| Q  E. S +E  E E S S   E E E S S E E Q    Q  E S S +E  E E S S
|-3--3--3-(3)-3-3-3-3-|-0-0-0-0-0-2-2-2--|-3--3-3-3-(3)-3-3-3-3---|
|-3--3--3-(3)-3-3-3-3-|-0-0-0-0-0-3-3-3--|-1--1-1-1-(1)-1-1-1-1---|
|-0--0--0-(0)-0-0-0-0-|-0-0-0-0-0-2-2-2--|-0--0-0-0-(0)-0-0-0-0---|
|-2--2--2-(2)-2-2-2-2-|-2-2-2-2-2-0-0-0--|-2--2-2-2-(2)-2-2-2-2---|
|-3--3--3-(3)-3-3-3-3-|-2-2-2-2-2--------|-3--3-3-3-(3)-3-3-3-3---|
|---------------------|-0-0-0-0-0--------|------------------------|


  G5                  Cadd2                  Em     D
                                                    W
|-------------------|----------------------|------------------|
|-------------------|----------------------|------------------|
|-------------------|----------------------|------------------|
|-------------------|----------------------|------------------|
|-------------------|----------------------|------------------|
|-------------------|----------------------|------------------|
|
| Q  E. S E E E S S   E E E. S +E  E E S S   E E Q  E E E S S
|-3--3--3-3-3-3-3-3-|-3-3-3--3-(3)-3-3-3-3-|-0-0-0------2-2-2-|
|-3--3--3-3-3-3-3-3-|-3-3-3--3-(3)-3-3-3-3-|-0-0-0------3-3-3-|
|-0--0--0-0-0-0-0-0-|-0-0-0--0-(0)-0-0-0-0-|-0-0-0----2-2-2-2-|
|-0--0--0-0-0-0-0-0-|-2-2-2--2-(2)-2-2-2-2-|-2-2-2--0---0-0-0-|
|-x--x--x-x-x-x-x-x-|-3-3-3--3-(3)-3-3-3-3-|-2-2-2------------|
|-3--3--3-3-3-3-3-3-|----------------------|-0-0-0------------|


  Cadd2               Em
                      E E E E   +H
|------------------||-------5---(5)-------|
|------------------||-----8---------------|
|------------------||---9-----------------|
|------------------||---------------------|
|------------------||---------------------|
|------------------||---------------------|
|
| Q  E. S +E  E Q     Q   E S S +E  E E E
|-3--3--3-(3)-3-3--||-0---0-0-0-(0)-0-0-0-|
|-3--3--3-(3)-3-3--||-0---0-0-0-(0)-0-0-0-|
|-0--0--0-(0)-0-0--||-0---0-0-0-(0)-0-0-0-|
|-2--2--2-(2)-2-2--||-2---2-2-2-(2)-2-2-2-|
|-3--3--3-(3)-3-3--||---------------------|
|------------------||---------------------|
|
| Gtr III
|                     W
|------------------||---------------------|
|------------------||---------------------|
|------------------||---------------------|
|------------------||---------------------|
|------------------||---------------------|
|------------------||-7-------------------|


  D#+                   G/D
  E E E E   +H          E E E E   +H
|-------5---(5)-------|-------5---(5)--------|
|-----8---------------|-----8----------------|
|---8-----------------|---7------------------|
|---------------------|----------------------|
|---------------------|----------------------|
|---------------------|----------------------|
|
| Q   E S S +E  E E E   Q   E S S +E  E E E
|-3---3-3-3-(3)-3-3-3-|-3---3-3-3-(3)-3-3-3--|
|-0---0-0-0-(0)-0-0-0-|-0---0-0-0-(0)-0-0-0--|
|-0---0-0-0-(0)-0-0-0-|-0---0-0-0-(0)-0-0-0--|
|-1---1-1-1-(1)-1-1-1-|-0---0-0-0-(0)-0-0-0--|
|---------------------|----------------------|
|---------------------|----------------------|
|
| W                     W
|---------------------|----------------------|
|---------------------|----------------------|
|---------------------|----------------------|
|---------------------|----------------------|
|-6-------------------|-5--------------------|
|---------------------|----------------------|


  Cadd2
   W                   E E E E q  Q
|-^7-----------------|-3-3-3-3-3-----||
|-^8-----------------|-3-3-3-3-3-----||
|-^7-----------------|-0-0-0-0-0-----||
|--------------------|-2-2-2-2-2-----||
|--------------------|-3-3-3-3-3-----||
|--------------------|---------------||
|
|  Q  E S S +E  E Q    E E E E q
|--3--3-3-3-(3)-3-3--|-3-3-3-3-3-----||
|--3--3-3-3-(3)-3-3--|-3-3-3-3-3-----||
|--0--0-0-0-(0)-0-0--|-0-0-0-0-0-----||
|--2--2-2-2-(2)-2-2--|-2-2-2-2-2-----||
|--3--3-3-3-(3)-3-3--|-3-3-3-3-3-----||
|--------------------|---------------||
|
|  W                   E E E E q
|--------------------|-3-3-3-3-3-----||
|--------------------|-3-3-3-3-3-----||
|--------------------|-0-0-0-0-0-----||
|--5-----------------|-2-2-2-2-2-----||
|--3-----------------|-3-3-3-3-3-----||
|--------------------|---------------||


  G5                   Cadd2
  H.           E S S   H       S E   S E E
|--------------------|------------------------|
|--------------------|------------------------|
|--------------------|------------------------|
|--------------------|-5-------x-5---x-5-5----|
|-5------------5-x-x-|-3-------x-3---x-3-3----|
|-3------------3-x-x-|------------------------|
|
| Q   E. S E E E S S   Q  E. S E   E   E S S
|-3---3--3-3-3-3-3-3-|-3--3--3-3---3---3-3-3--|
|-3---3--3-3-3
            
Submit corrections


        Live Like You Were Dying (killer) 3 Guitars_ lessons Hard to play? Try these video lessons and learn fast Live Like You Were Dying (killer) 3 Guitars_ lessons
        
↑ Back to top | Tablatures and chords for acoustic guitar and electric guitar, ukulele, drums are parodies/interpretations of the original songs. You may use it for private study, scholarship, research or language learning purposes only