» » »

Tim Mcgraw - Don't Take The Girl For 2 Guitars Tabs

Artists:  A B C D E F G H I J K L M N O P Q R S T U V W X Y Z # 

Don't Take The Girl For 2 Guitars Tabs

(ver. 1) Click to play this song!
Tim Mcgraw
 Rating:
4/5 (4 votes)

 Don't Take The Girl For 2 Guitars lessons Tabs too difficult? Try these video lessons and learn fast
 
                Don't Take The Girl
By Tim McGraw

Standard tunings both guitars

 Intro
  Q=104
                 G
 4/4
  Gtr II
  W              Q   E E E E Q     a E E E E +E  Q.
|--------------|-----------------|----------------------|
|--------------|-----------------|----------------------|
|--------------|-----5-5-5-4-----|-4S5-5-5-5-(5)-4------|
|--------------|-----------------|----------------------|
|--------------|-----7-7-7-5-----|-5S7-7-7-7-(7)-5------|
|--------------|-----------------|----------------------|
|
| Gtr I
| H    E E E E   E E E E E E E E     E E E E  E  E  E E
|--------------|---------------3-|---------3----------3-|
|--------------|-------3---3-----|-------3-------3------|
|------------0-|-----0---0---0---|-----0----------------|
|--------0h2---|---0-------------|------------0-----0---|
|--------------|-----------------|----------------------|
|--------------|-3---------------|---3------------------|


  Q   a E E  E  Q  E   +W
|--------------------|----------------------||
|--------------------|----------------------||
|-----4S5-5--5--4--7-|-(7)------------------||
|------------------5-|-(5)------------------||
|-----5S7-7--7--5----|----------------------||
|--------------------|----------------------||
|
| E E   E E +E  Q  E    E  E E E E E E E
|------------------3-|----------------------||
|---------3-(3)------|-----------------0----||
|-------0-------0----|-------2p0-2p0-2-0----||
|---0----------------|---------------2-0----||
|--------------------|-----2----------------||
|-3------------------|--3-------------------||


   Verse
    G
    E E E E E E E E   E E E E E E E E   E E E E +E  Q  E   E E E E E E E E
||----------------3-|-------3-------3-|----------------3-|------------------|
||o-------3---3-----|-----3-----3-----|-------3-(3)------|---------------0--|
||------0---0---0---|---0-------------|-----0-------0----|-----2p0-2p0-2-0--|
||----0-------------|---------0---0---|---0--------------|-------------2-0--|
||o-----------------|-----------------|------------------|---2--------------|
||--3---------------|-3---------------|-3----------------|-3----------------|


  E E E E E E E E   E E E E E E E E   E E E E +E  Q  E   E E E E E E E E
|---------------3-|-------3-------3-|----------------3-|-----------------|
|-------3---3-----|-----3-----3-----|-------3-(3)------|---------------0-|
|-----0---0---0---|---0-------------|-----0-------0----|-----2p0-2p0-2-0-|
|---0-------------|---------0---0---|---0--------------|-------------2-0-|
|-----------------|-----------------|------------------|---2-------------|
|-3---------------|-3---------------|-3----------------|-3---------------|


  Bm                Cmaj7             Bm                Cmaj7
  E E E E E E E E   E E E E E E E E   E E E E E E E E   E E E E E E E E
|---------------2-|-----------------|---------------2-|-----------------|
|-------2---2-----|-------0---0---0-|-------2---2-----|-------0---0---0-|
|-----4---4---4---|-----0-----------|-----4---4---4---|-----0-----------|
|---4-------------|---2-----2---2---|---4-------------|---2-----2---2---|
|-2---------------|-3---------------|-2---------------|-3---------------|
|-----------------|-----------------|-----------------|-----------------|


  Am7               G/B               Cmaj7             D7sus4
  E E E E E E E E   E E E E E E E E   E E E E E E E E   E E E E E E E E
|---------------0-|-------3-------3-|-----------------|-------3-----3---|
|-------1---1-----|-----0-----0-----|-------0---0---0-|-----1-----1---1-|
|-----0---0---0---|---0-------------|-----0-----------|---2-----2-------|
|---2-------------|---------0---0---|---2-----2---2---|-0---------------|
|-0---------------|-2---------------|-3---------------|-----------------|
|-----------------|-----------------|-----------------|-----------------|


  G
  E E E E E E E E   E E E E E E E E   E E E E +E  Q  E   E E E E E E E E
|---------------3-|-------3-------3-|----------------3-|-----------------|
|-------3---3-----|-----3-----3-----|-------3-(3)------|---------------0-|
|-----0---0---0---|---0-------------|-----0-------0----|-----2p0-2p0-2-0-|
|---0-------------|---------0---0---|---0--------------|-------------2-0-|
|-----------------|-----------------|------------------|---2-------------|
|-3---------------|-3---------------|-3----------------|-3---------------|


  E E E E E E E E   E E E E E E E E   E E E E +E  Q  E   E E E E E E E E
|---------------3-|-------3-------3-|----------------3-|-----------------|
|-------3---3-----|-----3-----3-----|-------3-(3)------|---------------0-|
|-----0---0---0---|---0-------------|-----0-------0----|-----2p0-2p0-2-0-|
|---0-------------|---------0---0---|---0--------------|-------------2-0-|
|-----------------|-----------------|------------------|---2-------------|
|-3---------------|-3---------------|-3----------------|-3---------------|


  Am                                  Cadd9             Dsus4
  E E E E E E E E   E E E E E E E E   E E E E E E E E   E E E E E E E E
|---------------5-|-------5-------5-|---------------3-|-------3-------3-|
|-------5---5-----|-----5-----5-----|-------3---3-----|-----3---3---3---|
|-----5---5---5---|---5-------------|-----0---0---0---|---2-------2-----|
|---7-------------|---------7---7---|---2-------------|-0---------------|
|-0---------------|-0---------------|-3---------------|-----------------|
|-----------------|-----------------|-----------------|-----------------|


  G
 4/4
  Gtr II
  Q   E E E E Q     a E E E E +E  Q.
|-----------------|----------------------|
|-----------------|----------------------|
|-----5-5-5-4-----|-4S5-5-5-5-(5)-4------|
|-----------------|----------------------|
|-----7-7-7-5-----|-5S7-7-7-7-(7)-5------|
|-----------------|----------------------|
|
| Gtr I
| E E E E E E E E     E E E E  E  E  E E
|---------------3-|---------3----------3-|
|-------3---3-----|-------3-------3------|
|-----0---0---0---|-----0----------------|
|---0-------------|------------0-----0---|
|-----------------|----------------------|
|-3---------------|---3------------------|


 1.,2.
  Q   a E E  E  Q  E   +W                 3x
|--------------------|--------------------||
|--------------------|-------------------o||
|-----4S5-5--5--4--7-|-(7)----------------||
|------------------5-|-(5)----------------||
|-----5S7-7--7--5----|-------------------o||
|--------------------|--------------------||
|
| E E   E E +E  Q  E    E  E E E E E E E  3x
|------------------3-|--------------------||
|---------3-(3)------|-----------------0-o||
|-------0-------0----|-------2p0-2p0-2-0--||
|---0----------------|---------------2-0--||
|--------------------|-----2-------------o||
|-3------------------|--3-----------------||


  3.                      H.=H
  W          W          W          W
|----------|----------|----------|------*|
|----------|----------|----------|------*|
|----------|----------|----------|------*|
|----------|----------|----------|------*|
|----------|----------|----------|------*|
|----------|----------|----------|------*|


Duration Legend
---------------
W - whole; H - half; Q - quarter; E - 8th; S - 16th; T - 32nd; X - 64th; a - acciaccatura
+ - note tied to previous; . - note dotted; .. - note double dotted
Uncapitalized letters represent notes that are staccato (1/2 duration)
Irregular groupings are notated above the duration line
Duration letters will always appear directly above the note/fret number it represents the
duration for.  Duration letters with no fret number below them represent rests.  Multi-
bar rests are notated in the form Wxn, where n is the number of bars to rest for.  Low
melody durations appear below the staff

Tablature Legend
----------------
 h   - hammer-on
 p   - pull-off
 b   - bend
 pb  - pre-bend
 r   - bend release (if no number after the r, then release imme
            
Submit corrections


        Don't Take The Girl For 2 Guitars lessons Hard to play? Try these video lessons and learn fast Don't Take The Girl For 2 Guitars lessons
        
↑ Back to top | Tablatures and chords for acoustic guitar and electric guitar, ukulele, drums are parodies/interpretations of the original songs. You may use it for private study, scholarship, research or language learning purposes only