Home » T » Times Of Grace »

Times Of Grace - Strength In Numbers Bass

Artists:  A B C D E F G H I J K L M N O P Q R S T U V W X Y Z # 

Strength In Numbers Bass

(ver. 1) Click to play this song!
Times Of Grace
Words: J. Leach, A. Dutkiewicz
Music: A. Dutkiewicz
Tempo = 96

Legend
L - tied note
x - dead note
h - hammer on/pull off
b - bend
s - slide
~ - vibrato
g - ghost note
> - accentuated note
t - trill
M - palm mute
. - staccato
P - popping (bass)
S - slapping (bass)
+ - tapping
W - wide vibrato
< - fade in
w - whammy bar
= - tremolo picking
v - brush up
^ - brush down
V - pick stroke up
n - pick stroke down


G |----|----|----|----|-------|-------|-------|-------|-------|-------|-------|
D |----|----|----|----|-------|-------|-------|-------|-------|-------|-------|
A |----|----|----|----|-------|-------|-------|-------|-------|-------|-------|
D |----|----|----|----|--0L---|--0----|--0L---|--0----|--0L---|--0----|--5----|


-------|-------|-------|-------|-------|-------|-------|-------|
-------|-------|-------|-------|-------|-------|-------|-------|
-------|-------|-------|-------|-------|-------|-------|-------|
--7----|--0L---|--0----|--5----|--7----|--5L---|--5----|--7----|


----------------|
----------------|
----------------|
--7--5--3--2----|


----------------------------------------------------------------------------|
----------------------------------------------------------------------------|
----------------------------------------------------------------------------|
--0--0--0--0.-------0--0--0--0.-------0--0--0--0.-------0--0--0--0--0--0----|


----------------------------------------------------------------------------|
----------------------------------------------------------------------------|
----------------------------------------------------------------------------|
--0--0--0--0.-------0--0--0--0.-------0--0--0--0.-------0--0--0--0--0--0----|


----------------------------------------------------------------------------|
----------------------------------------------------------------------------|
----------------------------------------------------------------------------|
--0--0--0--0.-------0--0--0--0.-------0--0--0--0.-------0--0--0--0--0--0----|


----------------------------------------------------------------------------|
----------------------------------------------------------------------------|
----------------------------------------------------------------------------|
--0--0--0--0.-------0--0--0--0.-------0--0--0--0--------0--0--0--0--0--12---|


----|
----|
----|
----|


----------------------------------------------------------------------------|
----------------------------------------------------------------------------|
----------------------------------------------------------------------------|
--------------------------------------10-12-0--8--10-0--8--7--0--5--7--3----|


-------|
-------|
--3----|
-------|


----------------------------------------------------------------------------|
----------------------------------------------------------------------------|
----------------------------------------------------------------------------|
--------------------------------------10-12-0--8--10-0--8--7--0--5--7--3----|


----------------------------------------------------------------------------|
----------------------------------------------------------------------------|
----------------------------------------------------------------------------|
--10-12-0--0--0--0--10-12-0--0--0--0--10-12-0--0--0--0--13-10-10-10-10-10---|


----------------------------------------------------------------------------|
----------------------------------------------------------------------------|
----------------------------------------------------------------------------|
--10-12-0--0--0--0--10-12-0--0--0--0--10-12-0--8--10-0--8--7--0--5--7--3----|


----------------------------------------------------------------------------|
----------------------------------------------------------------------------|
----------------------------------------------------------------------------|
--10-12-0--0--0--0--10-12-0--0--0--0--10-12-0--0--0--0--13-10-10-10-10-10---|


----------------------------------------------------------------------------|
----------------------------------------------------------------------------|
----------------------------------------------------------------------------|
--10-12-0--0--0--0--10-12-0--0--0--0--10-12-0--8--10-0--8--7--0--5--7--3----|


----|
----|
----|
----|


----------------------------------------------------------------------------|
----------------------------------------------------------------------------|
----------------------------------------------------------------------------|
--10-12-0--0--0--0--10-12-0--0--0--0--10-12-0--0--0--0--13-10-10-10-10-10---|


----------------------------------------------------------------------------|
----------------------------------------------------------------------------|
----------------------------------------------------------------------------|
--10-12-0--0--0--0--10-12-0--0--0--0--10-12-0--8--10-0--8--7--0--5--7--3----|


----------------------------------------------------------------------------|
----------------------------------------------------------------------------|
----------------------------------------------------------------------------|
--10-12-0--0--0--0--10-12-0--0--0--0--10-12-0--0--0--0--13-10-10-10-10-10---|


----------------------------------------------------------------------------|
----------------------------------------------------------------------------|
----------------------------------------------------------------------------|
--10-12-0--0--0--0--10-12-0--0--0--0--10-12-0--8--10-0--8--7--0--5--7--3----|


----|
----|
----|
----|


--------------------------------------------------------------------------------|
--------------------------------------------------------------------------------|
--------------------------------------------------------------------------------|
--0-----------0-----0--0--0-----------0-----0--0--0-----------0-----0--0--0-----|


--------------------|
--------------------|
--------------------|
------0-----0--3----|


--------------------------------------------------------------------------------|
--------------------------------------------------------------------------------|
--------------------------------------------------------------------------------|
--3-----------3-----3--3--3-----------3-----3--3--5-----------5-----5--5--5-----|


--------------------|
--------------------|
--------------------|
------5-----5--0----|


--------------------------------------------------------------------------------|
--------------------------------------------------------------------------------|
--------------------------------------------------------------------------------|
--0-----------0-----0--0--0-----------0-----0--0--0-----------0-----0--0--0-----|


--------------------|
--------------------|
--------------------|
------0-----0--3----|


--------------------------------------------------------------------------------|
--------------------------------------------------------------------------------|
--------------------------------------------------------------------------------|
--3-----------3-----3--3--3-----------3-----3--3--5-----------5-----5--5--5-----|


--------------------|----------------------------------------------------|
--------------------|----------------------------------------------------|
--------------------|----------------------------------------------------|
------5-----5--8----|--8--8--8--8--8--8--8--10----10-10-10-10-10-10-12---|


----------------------------------------------------|
----------------------------------------------------|
----------------------------------------------------|
--12-12-12-12-12-12-12-12-12-12-12-12-12-12----8----|


----------------------------------------------------|
----------------------------------------------------|
----------------------------------------------------|
--8--8--8--8--8--8--8--10----10-10-10-10-10-10-12---|


----------------------------------------------------|-------|
----------------------------------------------------|-------|
----------------------------------------------------|-------|
--12-12-12-12-12-12-12-12-12-12-12-12-12-12---------|--10---|


----------------------------------------------------------------------------|
----------------------------------------------------------------------------|
----------------------------------------------------------------------------|
--------------------------------------10-12-0--8--10-0--8--7--0--5--7--3----|


----------------------------------------------------------------------------|
----------------------------------------------------------------------------|
----------------------------------------------------------------------------|
--10-12-0--0--0--0--10-12-0--0--0--0--10-12-0--0--0--0--13-10-10-10-10-10---|


----------------------------------------------------------------------------|
----------------------------------------------------------------------------|
----------------------------------------------------------------------------|
--10-12-0--0--0--0--10-12-0--0--0--0--10-12-0--8--10-0--8--7--0--5--7--3----|


----------------------------------------------------------------------------|
----------------------------------------------------------------------------|
----------------------------------------------------------------------------|
--10-12-0--0--0--0--10-12-0--0--0--0--10-12-0--0--0--0--13-10-10-10-10-10---|


----------------------------------------------------------------------------|
----------------------------------------------------------------------------|
----------------------------------------------------------------------------|
--10-12-0--0--0--0--10-12-0--0--0--0--10-12-0--8--10-0--8--7--0--5--7--3----|


----|----|
----|----|
----|----|
----|----|


--------------------------------------------------------------------------------|
--------------------------------------------------------------------------------|
--------------------------------------------------------------------------------|
--0-----------0-----0--0--0-----------0-----0--0--0-----------0-----0--0--0-----|


--------------------|
--------------------|
--------------------|
------0-----0--3----|


--------------------------------------------------------------------------------|
--------------------------------------------------------------------------------|
--------------------------------------------------------------------------------|
--3-----------3-----3--3--3-----------3-----3--3--5-----------5-----5--5--5-----|


--------------------|
--------------------|
--------------------|
------5-----5--0----|


--------------------------------------------------------------------------------|
--------------------------------------------------------------------------------|
--------------------------------------------------------------------------------|
--0-----------0-----0--0--0-----------0-----0--0--0-----------0-----0--0--0-----|


--------------------|
--------------------|
--------------------|
------0-----0--3----|


--------------------------------------------------------------------------------|
--------------------------------------------------------------------------------|
--------------------------------------------------------------------------------|
--3-----------3-----3--3--3-----------3-----3--3--5-----------5-----5--5--5-----|


--------------------|----------------------------------------------------|
--------------------|----------------------------------------------------|
--------------------|----------------------------------------------------|
------5-----5--8----|--8--8--8--8--8--8--8--10----10-10-10-10-10-10-12---|


----------------------------------------------------|
----------------------------------------------------|
----------------------------------------------------|
--12-12-12-12-12-12-12-12-12-12-12-12-12-12----8----|


----------------------------------------------------|
----------------------------------------------------|
----------------------------------------------------|
--8--8--8--8--8--8--8--10----10-10-10-10-10-10-12---|


----------------------------------------------------|-------|-------|-------|
----------------------------------------------------|-------|-------|-------|
----------------------------------------------------|-------|-------|-------|
--12-12-12-12-12-12-12-12-12-12-12-12-12-12---------|--0L---|--0----|--0L---|


----------------|
----------------|
----------------|
--0--------0s---|


----------------------------------------------------------------------------|
----------------------------------------------------------------------------|
----------------------------------------------------------------------------|
--0--0--0--0.-------0--0--0--0.-------0--0--0--0.-------0--0--0--0--0--0----|


----------------------------------------------------------------------------|
----------------------------------------------------------------------------|
----------------------------------------------------------------------------|
--0--0--0--0.-------0--0--0--0.-------0--0--0--0.-------0--0--0--0--0--0----|


----------------------------------------------------------------------------|
----------------------------------------------------------------------------|
----------------------------------------------------------------------------|
--0--0--0--0.-------0--0--0--0.-------0--0--0--0.-------0--0--0--0--0--0----|


----------------------------------------------------------------------------|
----------------------------------------------------------------------------|
----------------------------------------------------------------------------|
--0--0--0--0.-------0--0--0--0.-------0--0--0--0--------0--0--0--0--0--0----|


----------------------------------------------------|
----------------------------------------------------|
--1--1--1--1--1--1--1--1--1--1--1--1--1--1--1--1----|
----------------------------------------------------|


----------------------------------------------------|
----------------------------------------------------|
--3--3--3--3--3--3--3--3--3--3--3--3--3--3--3--3----|
----------------------------------------------------|


----------------------------------------------------------------------------|
----------------------------------------------------------------------------|
----------------------------------------------------------------------------|
--0--0--0--0--------0--0--0--0--------0--0--0--0--------0--0--0--0----------|


----------------------------------------------------|
----------------------------------------------------|
--3--3--3--3--3--3--3--3--3--3--3--3--3--3--3--3----|
----------------------------------------------------|


----------------------------------------------------|
----------------------------------------------------|
--1--1--1--1--1--1--1--1--1--1--1--1--1--1--1--1----|
----------------------------------------------------|


----------------------------------------------------|
----------------------------------------------------|
--3--3--3--3--3--3--3--3--3--3--3--3--3--3--3--3----|
----------------------------------------------------|


----------------------------------------------------------------------------|
----------------------------------------------------------------------------|
----------------------------------------------------------------------------|
--0--0--0--0--------0--0--0--0--------0--0--0--0--------0--0--0--0----------|


----------------------------------------------------|
----------------------------------------------------|
--3--3--3--3--3--3--3--3--3--3--3--3--3--3--3--3----|
----------------------------------------------------|


----------------------------------------------------------------------------|
----------------------------------------------------------------------------|
----------------------------------------------------------------------------|
--0--0--0--0.-------0--0--0--0.-------0--0--0--0.-------0--0--0--0--0--0----|


----------------------------------------------------------------------------|
----------------------------------------------------------------------------|
----------------------------------------------------------------------------|
--0--0--0--0.-------0--0--0--0.-------0--0--0--0.-------0--0--0--0--0--0----|


----------------------------------------------------------------------------|
----------------------------------------------------------------------------|
----------------------------------------------------------------------------|
--0--0--0--0.-------0--0--0--0.-------0--0--0--0.-------0--0--0--0--0--0----|


----------------------------------------------------------------------------|
----------------------------------------------------------------------------|
----------------------------------------------------------------------------|
--0--0--0--0.-------0--0--0--0.-------0--0--0--0--------0--0--0--0--0--5----|


----|----|
----|----|
----|----|
----|----|


--------------------------------------------------------------------------------|
--------------------------------------------------------------------------------|
--------------------------------------------------------------------------------|
--0-----------0-----0--0--0-----------0-----0--0--0-----------0-----0--0--0-----|


--------------------|
--------------------|
--------------------|
------0-----0--3----|


--------------------------------------------------------------------------------|
--------------------------------------------------------------------------------|
--------------------------------------------------------------------------------|
--3-----------3-----3--3--3-----------3-----3--3--5-----------5-----5--5--5-----|


--------------------|
--------------------|
--------------------|
------5-----5--0----|


--------------------------------------------------------------------------------|
--------------------------------------------------------------------------------|
--------------------------------------------------------------------------------|
--0-----------0-----0--0--0-----------0-----0--0--0-----------0-----0--0--0-----|


--------------------|
--------------------|
--------------------|
------0-----0--3----|


--------------------------------------------------------------------------------|
--------------------------------------------------------------------------------|
--------------------------------------------------------------------------------|
--3-----------3-----3--3--3-----------3-----3--3--5-----------5-----5--5--5-----|


--------------------|----------------------------------------------------|
--------------------|----------------------------------------------------|
--------------------|----------------------------------------------------|
------5-----5--8----|--8--8--8--8--8--8--8--10----10-10-10-10-10-10-12---|


----------------------------------------------------|
----------------------------------------------------|
----------------------------------------------------|
--12-12-12-12-12-12-12-12-12-12-12-12-12-12----8----|


----------------------------------------------------|
----------------------------------------------------|
----------------------------------------------------|
--8--8--8--8--8--8--8--10----10-10-10-10-10-10-12---|


----------------------------------------------------|-------|-------|-------|
----------------------------------------------------|-------|-------|-------|
----------------------------------------------------|-------|-------|-------|
--12-12-12-12-12-12-12-12-12-12-12-12-12-12---------|--0L---|--0----|--5----|


----------------|-------|----|----|----||
----------------|-------|----|----|----||
----------------|-------|----|----|----||
--7--5--3--2----|--5s---|----|----|----||
            
Submit corrections

↑ Back to top | Tablatures and chords for acoustic guitar and electric guitar, ukulele, drums are parodies/interpretations of the original songs. You may use it for private study, scholarship, research or language learning purposes only