» » »

Tim Christensen - Superior Tabs

Artists:  A B C D E F G H I J K L M N O P Q R S T U V W X Y Z # 

Superior Tabs

(ver. 2) Click to play this song!
Tim Christensen
 Rating:
4.4/5 (7 votes)

 Superior lessons Tabs too difficult? Try these video lessons and learn fast
 
                Hey all! Here's my tab for Tim's newest single Superior, the album came out 
yesterday, can't wait to hear it. Well I didn't think that the other tab on this 
page of it wasn't very good, so i'll try to come up with a slightly better one. I 
don't think it's perfect, but it sounds ok. If any corrections please e-mail me: 

Heres the tab:

Standard tuning
Capo on 5th fret

intro (repeat approx. 4 times)
Am (start by doing an Am b5 and then slide up to an Am as shown)
|0-0-0-0|
|1-1-1-1|
|2-2-2-2|
|1-2-2-2|
|0-0-0-0|
|x-x-x-x|

Verse
 
(Superior, I...)(Superior, but..)(Superior, all..)(Meeeee...)
|0-0-0-0|0-0-0-0|0-0-0-0|0-0-0-0|0-0-0-0|0-0-0-0|0-0-0-0|0-0-0-0|\
|1-1-1-1|1-1-1-1|0-0-0-0|0-0-0-0|5-5-5-5|5-5-5-5|5-5-5-5|5-5-5-5| \
|2-2-2-2|2-2-2-2|0-0-0-0|0-0-0-0|6-6-6-6|6-6-6-6|4-4-4-4|4-4-4-4|  \
|1-2-2-2|2-2-2-2|1-2-2-2|1-2-2-2|4-5-5-5|4-5-5-5|5-5-5-5|5-5-5-5|   Repeat for verse 2
|0-0-0-0|0-0-0-0|x-x-x-x|x-x-x-x|4-4-4-4|4-4-4-4|3-3-3-3|3-3-3-3| /
|x-x-x-x|x-x-x-x|3-3-3-3|3-3-3-3|x-x-x-x|x-x-x-x|x-x-x-x|x-x-x-x|/
 Amb5 Am         Gm6 G6          C#msus4 C#mb5   Cmaj7

When moving from verse to chorus, you can play a H7 instead of a Cmaj7 in the last bar.
 
Chorus:

(I am terrified)(of what I...)  (If I lose con...)(of my very..)
|3-3-3-3|3-3-3-3|3-3-3-3|3-3-3-3|3-3-3-3|3-3-3-3|1-1-1-1|0-0-0-0|
|0-0-0-0|0-0-0-0|0-0-0-0|0-0-0-0|5-5-5-5|5-5-5-5|1-1-1-1|0-0-0-0|
|0-0-0-0|0-0-0-0|0-0-0-0|0-0-0-0|4-4-4-4|4-4-4-4|2-2-2-2|1-1-1-1|
|0-0-0-0|0-0-0-0|1-1-1-1|1-1-1-1|5-5-5-5|5-5-5-5|3-3-3-3|2-2-2-2|
|2-2-2-2|2-2-2-2|2-2-2-2|2-2-2-2|3-3-3-3|3-3-3-3|3-3-3-3|2-2-2-2|
|3-3-3-3|3-3-3-3|3-3-3-3|3-3-3-3|x-x-x-x|x-x-x-x|1-1-1-1|0-0-0-0|
 G               Gaug            Cmaj7           F       E

(And I understand)(That im in...)(when the fever..)(I scramble..)(Scramble to...)
|3-3-3-3|3-3-3-3|3-3-3-3|3-3-3-3|3-3-3-3|3-3-3-3|1-1-1-1|0-0-0-0|1-1-1-1|0-0-0-0|
|0-0-0-0|0-0-0-0|0-0-0-0|0-0-0-0|5-5-5-5|5-5-5-5|1-1-1-1|0-0-0-0|1-1-1-1|0-0-0-0|
|0-0-0-0|0-0-0-0|0-0-0-0|0-0-0-0|4-4-4-4|4-4-4-4|2-2-2-2|1-1-1-1|2-2-2-2|1-1-1-1|
|0-0-0-0|0-0-0-0|1-1-1-1|1-1-1-1|5-5-5-5|5-5-5-5|3-3-3-3|2-2-2-2|3-3-3-3|2-2-2-2|
|2-2-2-2|2-2-2-2|2-2-2-2|2-2-2-2|3-3-3-3|3-3-3-3|3-3-3-3|2-2-2-2|3-3-3-3|2-2-2-2|
|3-3-3-3|3-3-3-3|3-3-3-3|3-3-3-3|x-x-x-x|x-x-x-x|1-1-1-1|0-0-0-0|1-1-1-1|0-0-0-0|
 G               Gaug            Cmaj7           F       E       F       E

Chorus fill 1 (played on an electric): 

|--------|
|--------|
|----7---|
|7-9---9-|
|----5---|
|5-7---7-|

Thats the main parts. 

Then he starts to do power chords in the next chorus:

G5 Gaug C5 F5 E5
|x||x| |x||x||x|
|x||x| |x||x||x|
|x||x| |5||x||x|
|5||5| |5||3||2|
|5||6| |3||3||2|
|3||3| |x||1||0|


..and the solo (i've not inserted the exact number of picks, but its not hard to 
hear what Tim does):

|--------|---------|--------|---------|--------|----------|----------|------------|
|4-5-----|4-5-5/7-5|4-5-----|4-5-5/7-5|7-8-----|7-8-8/10-8|10-10p8-8b|12-12p10-10b|
|--------|---------|--------|---------|--------|----------|-------9--|--------12--|
|1-2--7-7|1-2-2/4-2|1-2--5-5|1-2-2/4-2|4-5--5-5|4-5-5/7--5|----------|------------|
|--------|---------|--------|---------|--------|----------|----------|------------|
|-----5-5|---------|-----3-3|---------|-----3-3|----------|----------|------------|
                             I'm not sure what he does at this point, but it ends like this:
|--------|---------|--------|---------|--------|----------|   |7---7---7---7--|10--10--10--10-| 
|4-5-----|4-5-5/7-5|4-5-----|4-5-5/7-5|7-8-----|7-8-8/10-8|   |10b-10b-10b-10b|13b-13b-13b-13b|
|--------|---------|--------|---------|--------|----------|   |---------------|---------------|
|1-2--7-7|1-2-2/4-2|1-2--5-5|1-2-2/4-2|4-5--5-5|4-5-5/7--5|   |---------------|---------------|
|--------|---------|--------|---------|--------|----------|   |---------------|---------------|
|-----5-5|---------|-----3-3|---------|-----3-3|----------|   |---------------|---------------|

In the following chorus, keep playing the last bar of the solo until you can play chorus fill 1...

Chorus fill 2 only in the end of the last chorus):

|------------|------------|------------|------------|
|------------|------------|------------|------------|
|9--7--------|9--7--------|9--7--------|------------|
|-----9-7-9--|-----9-7-9--|-----9-7-9--|9/2---------|
|7--5--------|7--5--------|7--5--------|------------|
|-----7-5-7--|-----7-5-7--|-----7-5-7--|7/0---------|
            
Submit corrections


        Superior lessons Hard to play? Try these video lessons and learn fast Superior lessons
        
↑ Back to top | Tablatures and chords for acoustic guitar and electric guitar, ukulele, drums are parodies/interpretations of the original songs. You may use it for private study, scholarship, research or language learning purposes only