» » »

Tim Christensen - Superior Bass

Artists:  A B C D E F G H I J K L M N O P Q R S T U V W X Y Z # 

Superior Bass

(ver. 1) Click to play this song!
Tim Christensen
 Rating:
4.3/5 (6 votes)

 Superior lessons Tabs too difficult? Try these video lessons and learn fast
 
                    ___________________
   / Tim Christensen  /  Remember to check out my Guitar Pro tab of the whole
  / Superior         /  thing - it's definitely easier to learn the song from
 / Superior         /  that, especially when it comes to timing. It includes
/__________________/   all the instruments, except for the drums.

Time:  Shuffled 4/4
Tempo: 65 bpm
Key:   C major


 The bass plays in in the second verse.

 Verse:
  Dm                Am/C              F#dim7            F6maj7  Fmaj7
|-----------------|-----------------|-----------------|----------------------|
|-----------------|-----------------|-----------------|----------------------|
|-5---5---5---5---|-3---3---3---3---|-9---9---9---9---|-8---8---x-8-8--8--7--|
|-----------------|-----------------|-----------------|----------------------|

  Dm                Am/C              F#dim7            F6maj7  Fmmaj7
|-----------------|-----------------|-----------------|-----------------|
|-----7-------7---|-----5-------0-2-|-4-------4---4---|-3-3-3-3-3-3-3-3-|
|-5-------5-------|-3-----0-3-------|-----3-----------|-----------------|
|-----------------|-----------------|-----------------|-----------------|



 Chorus 2:
                                                         1.
    C                 C+5               Fmaj7             A#7
||--------------5---|-------------5---|-------------5---|------------------||
||o-----------5---5-|-6---------6---6-|-----------7---7-|-8-8-8-8-8-10\---o||
||o-3-3-3-3-3-------|---3-3-3-3-------|-----------------|-----------------o||
||------------------|-----------------|-1-1-1-1-1-------|------------------||


 2.
                                         2/4
  A#7     Asus4 A      A#7     Asus4      A7
|--------------------|------------------|-----------|
|-8-8-8-8-7-----7----|-8-8-8-8-7----7---|-7-7-5-----|
|------------7\---0/-|------------7---7-|-------8-7-|
|--------------------|------------------|-----------|



 Guitar Solo:
  Dm                 Am/C               F#dim7             F6maj7  Fmaj7
|------------------|------------------|------------------|-----------------|
|-----7--------7---|-----5--------0-2-|-4-------4--4-----|-3-3-3-3-3-3-3-3-|
|-5-------5-5----5-|-3-------3-3------|-----5-3------5-3-|-----------------|
|------------------|------------------|------------------|-----------------|

  Dm                Am/C               F#dim7           F6maj7
|-----------------|-----------------|-----------------|-----------------|
|-----7-------7---|-----5-------0-2-|-4-------4-4-4-4-|-3-3-3-3-3-3-3-3-|
|-5-------5-5---5-|-3-------3-3-----|-----5-3---------|-----------------|
|-----------------|-----------------|-----------------|-----------------|



 Chorus 3:
  C                 C+5               Fmaj7
|-------------5---|-------------5---|-------------5---|
|-----------5---5-|-6---------6---6-|-----------7---7-|
|-3-3-3-3-3-------|---3-3-3-3-------|-----------------|
|-----------------|-----------------|-1-1-1-1-1-------|

  A#7
|---------------10-12p10----------|
|-8-8-8-8-10s12----------12---10\-|
|---------------------------------|
|---------------------------------|

  C                 C+5/G#            Fmaj7             A#7
|-------------5---|-------------5---|-------------5---|----------------------|
|-----------5---5-|-6-6-6-6-6-6---6-|-----------7---7-|-8-8-8-8-8-7----------|
|-3-3-3-3-3-------|-----------------|-----------------|--------------7\-0/---|
|-----------------|-----------------|-1-1-1-1-1-------|----------------------|

                                                2/4
  A#7        Asus4      Asus4                    Asus4  A
|---------------------|------------------------|------------|
|-8-8-8-10-8-7----7---|----7---7-------7---7/9-|-9h11--\7---|
|---------------7-----|--7---7-------7---7-----|------------|
|---------------------|------------------------|------------|



 Outro:
  Dm                Am/C              F#dim7            F6maj7
|-----------------|-----------------|-----------------|-----------------|
|-----------------|-----------------|-----------------|-----------------|
|-5---5---5---5---|-3---3---3---3---|-9---9---9---9---|-----------------|
|-----------------|-----------------|-----------------|-1---------------|



Jon Sebastian Frederiksen - 30th /November /08
            
Submit corrections


        Superior lessons Hard to play? Try these video lessons and learn fast Superior lessons
        
↑ Back to top | Tablatures and chords for acoustic guitar and electric guitar, ukulele, drums are parodies/interpretations of the original songs. You may use it for private study, scholarship, research or language learning purposes only