» » »

Tim Christensen - Secrets On Parade Tabs

Artists:  A B C D E F G H I J K L M N O P Q R S T U V W X Y Z # 

Secrets On Parade Tabs

(ver. 2) Click to play this song!
Tim Christensen
 Rating:
4/5 (4 votes)

 Secrets On Parade lessons Tabs too difficult? Try these video lessons and learn fast
 
                Intro 
---x-- 
---x-- 
---x-- 
---2-- 
---2-- 
---0-- 

Verse: 
---x-----x-----x-----x----------------------0- 
---x-----x-----x-----x----------------------0- 
---2-----2-----1-----1------------0---------x- 
---2-----2-----2-----2---------2-----2------2- 
---0-----0-----2-----2----------------------2- 
---x-----x-----0-----0----3-----------------0- 

---x-----x-----x-----x--------------------x- 
---x-----x-----x-----x--------------------x- 
---2-----2-----1-----1-----------7--------4- 
---2-----2-----2-----2--------7----7------4- 
---0-----0-----2-----2-----5--------------2- 
---x-----x-----0-----0--------------------x- 

---x-----x-----x-----x-----x-----x-- 
---x-----x-----x-----x-----x-----x-- 
---2-----2-----1-----1-----2-----2-- 
---2-----2-----2-----2-----2-----2-- 
---0-----0-----2-----2-----0-----0-- 
---x-----x-----0-----0-----x-----x-- 

---------------------------x------ 
---------------------------x------ 
---------------------------x------ 
-------5-------------------2-----6 
---5------5-----8----7-----2-----5 
----------------6----6-----0------ 

Finish after first verse. 
------------------------------------- 
------------------------------------- 
------------------------------------- 
-6---6---6---4---6---4---6---7---6-4- 
-5---5---5---5---5---5---5---5---5-5- 
------------------------------------- 

-------------------- 
-------------------- 
--4----------------- 
--x---7---6--7--6--6 
--5---5---5--5--5--5 
-------------------- 

The note D on the A string is played moderately, with 
The same space between the hits, but the other notes 
Are played with the melody so the beats do not come 
precisely at the same time as I have been writing. 

Finish after second verse. 
---x-----x-----x-----x-----0-----0 
---x-----x-----x-----x-----0-----0 
---2-----2-----5-----5-----x-----x 
---2-----2-----x-----x-----2-----2 
---0-----0-----3-----3-----2-----2 
---x-----x-----x-----x-----0-----0 

Chorus 
------------------------------------- 
------------------------------------- 
------------------------------------- 
-6---6---6---4---6---4---6---7---6-4- 
-5---5---5---5---5---5---5---5---5-5- 
------------------------------------- 

------------------------------ 
------------------------------ 
--4--------------------------- 
--x---7---6--7--6--6---------- 
--5---5---5--5--5--5---------- 
----------------------10-10-10 

------------------------------------- 
------------------------------------- 
------------------------------------- 
-6---6---6---4---6---4---6---7---6-4- 
-5---5---5---5---5---5---5---5---5-5- 
------------------------------------- 

-------------------------- 
-------------------------- 
--4----------------------- 
--x---7---6--7--6--6--4--2 
--5---5---5--5--5--5------ 
-------------------------- 

---x-----x-----x-----x-----x-4^5---x-----x-- 
---x-----x-----x-----x-----x-------x-----x-- 
---6-----6-----2-----2-----6-------6-----2-- 
---6-----6-----2-----2-----6-------6-----2-- 
---4-----4-----0-----0-----4-------4-----0-- 
---x-----x-----x-----x-----x-------x-----x-- 

---x-----x-----x-----x-----x-- 
---x-----x-----x-----x-----x-- 
---2-----6-----6-----2-----2-- 
---2-----6-----6-----2-----2-- 
---0-----4-----4-----0-----0-- 
---x-----x-----x-----x-----x-- 

------------------------0 
------------------------0 
------------------------x 
------------------2--2--2 
---5--5--5^7--5---2--2--- 
---3--3--3^5--3---0--0---
            
Submit corrections


        Secrets On Parade lessons Hard to play? Try these video lessons and learn fast Secrets On Parade lessons
        
↑ Back to top | Tablatures and chords for acoustic guitar and electric guitar, ukulele, drums are parodies/interpretations of the original songs. You may use it for private study, scholarship, research or language learning purposes only