» » »

Tim Christensen - Secrets On Parade Tabs

Artists:  A B C D E F G H I J K L M N O P Q R S T U V W X Y Z # 

Secrets On Parade Tabs

(ver. 1) Click to play this song!
Tim Christensen
 Rating:
4/5 (4 votes)

 Secrets On Parade lessons Tabs too difficult? Try these video lessons and learn fast
 
                Intro: The sound is slowly turned up.
---0--
---0--
---x--
---2--
---2--
---0--

Vers:
---2-----2-----1-----1-----------0--------------2-----2-----1-----1-----------7------4-
---2-----2-----2-----2--------2-----2----2-----2-----2-----2-----2--------7----7----4-
---0-----0-----2-----2--------------------2-----0-----0-----2-----2-----5-------------2-
----------------0-----0----3---------------0------------------0-----0----------------------

---2-----2------------------2-----2----------------------------------------------
---2-----2-----1-----1-----2-----2---------------------------------1-----------
---2-----2-----2-----2-----2-----2--------5--------8----8---------2----6----
---0-----0-----2-----2-----0-----0-----5----5------8----7--------2----5---
----------------0-----0-------------------------------6----6--------0--------

Finish after first verse.
----------------------------------------------4----------------
---6---6---6---4---6---4---6---7---6-4---x---7---6--7--6
---5---5---5---5---5---5---5---5---5-5---5---5---5--5--5

The note D on the A string is played moderately, with 
The same space between the hits, but the other notes
Are played with the melody so the beats do not come 
precisely at the same time as I have been writing.

Finish after second verse.
-----------------------------0-----0--
---2-----2------------------0-----0--
---2-----2-----5-----5-----x-----x--
---2-----2-----x-----x-----2-----2--
---0-----0-----3-----3-----2-----2--
-----------------------------0-----0--

Chorus:
----------------------------------------------4------------------------------
---6---6---6---4---6---4---6---7---6-4---x---7---6--7--6--------------
---5---5---5---5---5---5---5---5---5-5---5---5---5--5--5--------------


----------------------------------------------4-----------------------
---6---6---6---4---6---4---6---7---6-4---x---7---6--7--6--4--2
---5---5---5---5---5---5---5---5---5-5---5---5---5--5--5-------

--------------------------------4^5-------------------------------------------------------------------------0	--g--
---6-----6-----2-----2-----6-------6-----2-----2-----6-----6-----2-----2-------------------------------x	--n--
---6-----6-----2-----2-----6-------6-----2-----2-----6-----6-----2-----2-----------------------2--2---2	--t--
---4-----4-----0-----0-----4-------4-----0-----0-----4-----4-----0-----0-----5--5--5^7--5---2--2----	--a--

The Chorus is played twice.

Solo over Chorus:
---^12---^12------------------------^12--^12----------------------------------------------------------------------------------------------
-----------------7--9^7--7--9--9------------------------9--9^11---------------------9--9--11--9-----------------------------------------
----------------------------------------------------9--11------------11----------------------------------------------------------------------

-------------------12--12--12^9-----9---12--12--12^9-------9---10--10--9^10^9------------------------------------------------
---^14--^14----------------------12-----------------------12----------------------------12--10--12--10----------------------------

---^16---^16-----------------------------------^16---^16-------9-9--11-11-12-12^16--^16--16-14------------------^16-^16--
------------------------9--9^11^9-----9------------------------------------------------------------------------------------------------
----------------9--11--------------11----11---------------------------------------------------------------------------------------------

---16--14---------------------------------14-14-------16--16--14--16--14--14-------------------------------------------------------
------------14--------14---17--17--14----------17---------------------------------17--15--15^17^15--12--15----------------------
------------------16------------------------------------------------------------------------------------------------------14--16--12--14-

--------------14^16^14----12--12---
---------------------------------------------
---14--14------------------------------
--------------------------------------------
--------------------------------------------
--------------------------------------------

Chords:

Verse: A-E-G6-E-A-E-D-H-A-E-A-D-A#-A#dim-E-Ddim

Chorus: Ddim         :C#-A:       G-A-G-E


Lyrics:

All my secrets on parade
These emotions couldn't wait
'Cause I tried to be
Someone who wasn't me
Now I only play the fool when I'm alone
When I'm at home

My mind's a mess in many ways
Got to get things into place
And I'm getting close
But nobody knows
When I only play the fool when I'm alone
When I'm at home

Oh that sweet frosting on the beater
All I want is you
I don't need for you to be my leader
All I want is you

Though you're down with the rain
You cannot kill the flame
It's blood in the vein
Of my inner circle

When my ego turns to gold
I know I can break the mould
You've just gotta see
The miracle of me
And the things I only do when I'm alone
When I'm at home

Oh that sweet frosting on the beater
All I want is you
I don't need for you to be my leader
All I want is you

Though You're down with the rain
You cannot kill the flame
It's blood in the vein
Of my inner circle
            
Submit corrections


        Secrets On Parade lessons Hard to play? Try these video lessons and learn fast Secrets On Parade lessons
        
↑ Back to top | Tablatures and chords for acoustic guitar and electric guitar, ukulele, drums are parodies/interpretations of the original songs. You may use it for private study, scholarship, research or language learning purposes only