» » »

Tim Christensen - Caterpillar Tabs

Artists:  A B C D E F G H I J K L M N O P Q R S T U V W X Y Z # 

Caterpillar Tabs

(ver. 1) Click to play this song!
Tim Christensen
 Rating:
4/5 (4 votes)

 Caterpillar lessons Tabs too difficult? Try these video lessons and learn fast
 
                Intro:
---4--4---7--7---8--8---9--9---8--8---7--7---8--8--8--8--
Play the single notes many times each.

Guitar two in the intro on the note C#, 9th fret., 			and second time at the C, 8th fret:
--------------------------				-----------------------------
--------------------------				---13---13--13------------
---12---12---12--------				----x----x----x-------------
----x----x----x---------				---10---10--10------------
---10---10---10--------				------------------------------
--------------------------				------------------------------

Tonzer-part:
--------------------------------------------------	--g--
-----------------------------------0---0---------	--e--
-----------------------------------4---4---------	--n--
----6--6-----6-----6-----6--6------------------	--t--
-----------3-----3-----3-------------------------	--a--
---------------------------------------------------	--g--

Verse:
----8--8--8--8--8--8--8--8--9--9--9--9--9--9--9--9--11--11--11--11--11--11--11--11--7--7--7--7--7--7--7--7--	--g--

---5 (clinging out)---------------------------------------6---6---6---6---5---5---5---5---3---3---6---6---5---5---5---5-----
---x--------------------------------------------------------3---3---3---3---3---3---3---3---3---3---3---3---3---3---3---3-----
---4--4--4--4--4--4--4--4--7--7--7--7--7--7--7--7------------------------------------------------------------------------------

Chorus:
----3---3---3---3---3---3---3---3---6---6---6---6---5---5---5---5---10---10---10---10----8------------11--11-------x----x----x-
----x---x---x---x---x---x---x---x---x---x---x---x---x---x---x---x----x----x-----x----x----10--10-10--11--11-10---10--10--10-
----4---4---4---4---4---4---4---4---7---7---7---7---7---7---7---7----8----8-----8----8-----8---8---8---9----9--9----9----9----9-






--------------------------------------6---6---6---6---5---5---5---5----6---6---6---6---5---5---5---5---3---3---6---6---5---5---5---5
--6---6---6---6---6---6---6---6---x---x---x---x---x---x---x---x----3---3---3---3---3---3---3---3---3---3---3---3---3---3---3---3
--4---4---4---4---4---4---4---4---7---7---7---7---7---7---7---7-------------------------------------------------------------------------

C:
---------------------------------------4---4---4---4------------------------------------------------------------------------------------------
---5---5---5---5---4---4---4---4---5---5---5---5---5--6--6--5--6--5--6--5---5---5---5---5---4---4---4---4-------------------------
---x---x---x---x---x---x---x---x---x---x---x---x---x--x--x--x--x--x--x--x---x---x---x---x---x---x---x---x--3--3--3--3^13-8-10
---3---3---3---3---2---2---2---2---3---3---3---3---3--4--4--3--4--3--4--3---3---3---3---3---2---2---2---2--3--3--3--3^13-8-10
---4---4---4---4---3---3---3---3--------------------------------------------------4---4---4---4---3---3---3---3--1--1--1--1^11-6--8

Second time he plays like this:
---9----9-----9----9-----9----9-----9----9----5---5---5---5---2---2---2^----------	--n--
--10---10---10---10---10---10---10---10---6---6---6---6---3---3---3^----------	--t--
--10---10---10---10---10---10---10---10---6---6---6---6---3---3---3^----------	--a--
---8----8-----8----8-----8----8-----8----8----4---4---4---4---1---1---1^----------	--g--

----0--0------------------------------------------------------------------
-----------0---------------------------------------------------------------
---------------2--------4-----2----------2-------------------------------
-----------------------------------3----------3---------------------------
--------------------------------------------------2-----------2^3----0---

Last part of the song, a guitar goes like this.
---19^-----
----x^------
---16^-----
-------------
-------------
-------------

Chords:
Intro: G#-H-C-C#-C-H-C

Theme: Cdim

Vers:        :C-C#-D#-H:   G#-H-C

Chorus: G#6-H6-H5#-C-C#

C:  :C-H-C-C-C#-C--C-H-F-D#-A#-C:
       :C-G#-F:

Lyrics: 
music and lyrics by: Tim Christensen. 

Caterpillar walk away from me now
If you'd like to feel it my friend
You don't understand a thing anyhow
There's no need to stay 'till the end
So caterpillar walk away from me now
Time to move on

Caterpillar, you're the talk of the town
They'd all like a piece of you now
You had better keep your feet on the ground
They'd all like it like that anyhow
So caterpillar walk away from me now
Time to move on

Caterpillar, walk away from me now
I don't like to see you around no more
Caterpillar, walk away from me now
Time to move on

Caterpillar, walk away from your teens
There's a light outside the domain
Hate to see you fall apart at their dreams
You're no longer a part of that game
Caterpillar, it's a shame but it's true
Time will pass you

Caterpillar, walk away from me now
I don't like to see you around no more
Caterpillar, walk away from me now
Time to move on

You can play the game 
Like a giant stinging voodoo crab monster
It's in the game after all

Time to move on - Turn your light on
            
Submit corrections


        Caterpillar lessons Hard to play? Try these video lessons and learn fast Caterpillar lessons
        
↑ Back to top | Tablatures and chords for acoustic guitar and electric guitar, ukulele, drums are parodies/interpretations of the original songs. You may use it for private study, scholarship, research or language learning purposes only